PrimaNota.ru - самый крупный в мире бесплатный архив песенных текстов, аккордов, табулатур и нот


Wwe - The Second Coming - Seth Rollins - таба, видео

Регистрация Запомнить меня
Войти через:  Facebook Google Twitter Vk Yandex Mail.ru

Wwe - The Second Coming - Seth Rollins - таба, видео

Печатать
Просмотров: 75
Drop C Tuning (CGCFAD)

Intro
D------------------------------------------------------|
A------------------------------------------------------|
F------------------------------------------------------|
C-0-0-0-0--0-0-0-0--0-0-0-0--0-0-0-0--0-0-0-0--0-0-0-0-| X2
G-0-0-0-0--0-0-0-0--0-0-0-0--0-0-0-0--0-0-0-0--0-0-0-0-|
C-0-0-0-0--0-0-0-0--0-0-0-0--0-0-0-0--0-0-0-0--0-0-0-0-|

D--------------------|
A--------------------|
F--------------------|
C-0-0-0-0----0-0-0-0-|
G-0-0-0-0----0-0-0-0-|
C-0-0-0-0----0-0-0-0-|

                                                                              X= palm mute
                                                                              h= hammer on
Chorus
D----------------------------------------------------------|
A----------------------------------------------------------|
F----------------------------------------------------------|
C----------------------------------------------------------|
G-----------------------------------------------6h5-3h5----|
C-6-X-X-X-X-X-X-5h6-X-X-X-X-X-X-X-6h5-3h5-X-X-X--------X-X-|
                                                               X2
D-----------------------------------------------------------|
A-----------------------------------------------------------|
F-----------------------------------------------------------|
C-----------------------------------------------------------|
G-----------------------------------------------------------|
C-6-X-X-X-X-X-X-5h6-X-X-X-X-X-X-X-4h3-1h3-X-X-X-4h3-1h3-1h3-|

Just repeat it (:


Outro
D----------|
A----------|
F----------|
C-0--------|
G-0--------|
C-0--------|
Добавлено: 17.11.2015
Другие материалы по этой песне:
  • Аккорды и текст

Страница создана 17.11.2015
http://primanota.ru/wwe/second-coming-seth-rollins-chords.htm
Привет, Гость.
Предлагаем пройти революционный курс по гитаре.
Подарок от PrimaNota.Ru, забирай!