PrimaNota.ru - самый крупный в мире бесплатный архив песенных текстов, аккордов, табулатур и нот


Wwe - Rebellion - The Ascension - таба, видео

Регистрация Запомнить меня
Войти через:  Facebook Google Twitter Vk Yandex Mail.ru

Wwe - Rebellion - The Ascension - таба, видео

Печатать
Просмотров: 57
Drop D Tuning (DADGBE)

Intro
E--------------------------------------------------|
B--------------------------------------------------|
G--------------------------------------------------|
D-19\\\\\\\\\\-------------------------------------|
A-17\\\\\\\\\\-------------------------------------|
D--------------------------------------------------|

E--------------------------------------------------|
B--------------------------------------------------|
G--------------------------------------------------|
D-7------------7------------8------------5---8-----|  X2
A-5------------5------------6------------3---6-----|
D--x-x-x-x-x-x--x-x-x-x-x-x--x-x-x-x-x-x--x-x--x-x-|


Verse
Guitar 2
E--------------------------------------------------------------------------------------------------------------|
B-3-3-3-3-3-3-3-3-3-3-3-3-3-3-3-3-3-3-3-3-3-3-3-3-3-3-3-3-3-3-3-3-3-3-3-3-3-3-3-3-3-3-3-3-3-3-3-3-3-3-3-3-3-3-3|
G-7-7-7-7-7-7-7-7-7-7-7-7-7-7-7-7-7-7-7-7-7-7-7-7-7-7-7-7-7-7-7-7-7-7-7-7-7-7-7-7-7-7-7-7-7-7-7-7-7-7-7-7-7-7-7|
D--------------------------------------------------------------------------------------------------------------|
A--------------------------------------------------------------------------------------------------------------|
D--------------------------------------------------------------------------------------------------------------|

Guitar 1
E--------------------------------------------------------------------------------------------------------------|
B--------------------------------------------------------------------------------------------------------------|
G--------------------------------------------------------------------------------------------------------------|
D--------------------------------------------------------------------------------------------------------------|
A--------------------------------------------------------------------------------------------------------------|
D-x--x-x-x-x-x--x-x-x-x-x-x--x--x-x-x-x-x-x-x--x-x-x-x-x-x-x--x-x-x--x-x-x-x-x-x--x--x-x-x-x-x-x-x-x-x--x-x-x-x|


Intro
E----------------------------------------------------------------------------|
B----------------------------------------------------------------------------|
G----------------------------------------------------------------------------|
D-7------------7------------8------------5---8-----7------------7------------|
A-5------------5------------6------------3---6-----5------------5------------|
D--x-x-x-x-x-x--x-x-x-x-x-x--x-x-x-x-x-x--x-x--x-x--x-x-x-x-x-x--x-x-x-x-x-x-|

E---------------------------------|
B---------------------------------|
G---------------------------------|
D-4-4-----5-5-----4-4-----1-1-----|
A-4-4-----5-5-----4-4-----1-1-----|
D-4-4-x-x-5-5-x-x-4-4-x-x-1-1-x-x-|


Just repeat it (:


Outro
E-----------------------------------|
B-----------------------------------|
G-----------------------------------|
D-4-4-----5-5-----4-4-----1-1-----0-|
A-4-4-----5-5-----4-4-----1-1-----0-|
D-4-4-x-x-5-5-x-x-4-4-x-x-1-1-x-x-0-|
Добавлено: 17.11.2015
Другие материалы по этой песне:
  • Аккорды и текст

Страница создана 17.11.2015
http://primanota.ru/wwe/rebellion-ascension-chords.htm
Привет, Гость.
Предлагаем пройти революционный курс по гитаре.
Подарок от PrimaNota.Ru, забирай!