PrimaNota.ru - самый крупный в мире бесплатный архив песенных текстов, аккордов, табулатур и нот


Wolfmother - In The Castle - текст песни, таба, видео

Регистрация Запомнить меня
Войти через:  Facebook Google Twitter Vk Yandex Mail.ru

Wolfmother - In The Castle - текст песни, таба, видео

Печатать
Просмотров: 106
Авторы музыки: Andrew Stockdale
Авторы текста: Andrew Stockdale
Transcribed by Danleary

Hello Wolfmother.net!

Standard Tuning

Key

 ^  : Bend [1/4, 1/2, 1, etc.]
 v  : Bring bend back down
 /  : Slide into
 \  : Slide out of
 h  : Hammer on
 p  : Pull Off
(-) : Do not pick note
 =  : Vibrato
 X  : Mute
_____________________________________________________________________________

Intro/Verse

0:36                                          

|--2-3-2-0-1---------------2-----2---3-3p2----|
|------------1-1---1---1-----3-----3----------|
|----------------0---0---0--------------------|
|--0-0-0-0-3---------------0---0-----0-0---0--|
|--------------3-------3----------------------|
|------------------3--------------------------|

0:45                                     0:53

|--2-3-2-0-1---------------------------------|
|------------1-1---1---1---2----2---3-3p2----|
|----------------0---0---0---2----2-------2--|
|--0-0-0-0-3---------------------------------|
|--------------3-------3---0---0----0-0------|
|------------------3-------------------------|

Repeat

Guitar I

1:26

|----------------------------------------------------------|
|----------------------------------------------------------|
|--11-12-11-9-11-9-------------------11==-11==-11==--11==--|
|------------------12-10-9-9h10-9-10-----------------------|
|----------------------------------------------------------|
|----------------------------------------------------------|

Guitar II

Play again at 1:47, 4:26, 4:42

1:31

   D
|--3-3-3-3--|
|--2-2-2-2--|
|--3-3-3-3--|
|--0-0-0-0--|
|--0-0-0-0--|
|-----------|

Guitar I

1:34

|---------------------------------------------------------------------|
|---------------------------------------------------------------------|
|--11h12p11-11-9------------------------------------------------------|
|----------------12-10-9-10-9-10-9h10h12-10-9-10----------------------|
|------------------------------------------------12==-12==-12==-12==--|
|---------------------------------------------------------------------|

Guitar II

Play again at 1:55, 4:34, 4:50

1:39

  A
|----------|
|----------|
|-2-2-2-2--|
|-2-2-2-2--|
|-0-0-0-0--|
|----------|

Guitar I

1:42

|-------------------------------------------------------------------|
|-------------------------------------------------------------------|
|-11/12-12/14-14/16-16\14-14\12--12\11-11h12p11-9-12-11-9-----------|
|----------------------------------------------------------12-10-9--|
|-------------------------------------------------------------------|
|-------------------------------------------------------------------|

1:47

|-----------------------|
|-----------------------|
|--11==-11==-11==-11==--|
|-----------------------|
|-----------------------|
|-----------------------|

1:51

|-------------------------------------------------------------|
|-------------------------------------------------------------|
|--12p11p9-12p11p9-12p11p9-12p11p9-11-9-----------------------|
|---------------------------------------12-10-9-9-10-12-10-9--|
|-------------------------------------------------------------|
|-------------------------------------------------------------|

1:55

|-----------------------------|
|-----------------------------|
|-----------------------------|
|-----------------------------|
|--12==-12==-12==-12==-12===--|
|-----------------------------|
_____________________________________________________________________________

Chorus

With wah-wah pedal.

2:04

|---------------------------------------------------------------------------|
|---------------------------------------------------------------------------|
|---------------------------------------------------------------------------|
|---------------------------------------------------------------------------|
|---------------------------------------------------------------------------|
|--5--5-5-5-5--5--5-5-5-5--3--3-3-3-3--3--3-3-3-3--1--1-1-1-1--1---1-1-1-1--|

2:09

   C  C# D   G  G# A
|---------------------|
|---------------------|
|--5--6--7------------|
|--5--6--7---5--6--7--|
|--3--4--5---5--6--7--|
|------------3--4--5--|
            
2:17
                              C  C# D   G  G# A
|--------------------------|---------------------|
|--------------------------|---------------------|
|--------------------------|--5--6--7------------|
|--------------------------|--5--6--7---5--6--7--|
|--------------------------|--3--4--5---5--6--7--|
|--5--5-5-5-5--5--5-5-5-5--|------------3--4--5--|
                  Repeat 6X
_____________________________________________________________________________

Bridge                     Variation I   Variation II
 
2:53                       3:12          3:20

   D     F  C  G  F  D        A              D
|--3-----1--0--3--0--3--|  |-----|       |--/14-14-14-14-14-14-14-14-14-14--|
|--2-----1--1--0--1--2--|  |--2--|       |--/16-16-16-16-16-16-16-16-16-16--|
|--3-----2--0--0--0--3--|  |--2--|       |--/14-14-14-14-14-14-14-14-14-14--|
|--0-----3--2--0--2--0--|  |--2--|       |--/0--0--0--0--0--0--0--0--0--0---|
|--0-----0--3--2--3--0--|  |--0--|       |----------------------------------|
|--------------3--------|  |-----|       |----------------------------------|
_____________________________________________________________________________

4:20

|----------------------------------------------------------------|
|----------------------------------------------------------------|
|--11-12-11-9-9h11p9----9-----------------11==-11==-11==-11==----|
|--------------------12---12-10-9-10-9-10------------------------|
|----------------------------------------------------------------|
|----------------------------------------------------------------|

4:29

|----------------------------------------------------------------------|
|----------------------------------------------------------------------|
|--11/12-12/14-14-12-11-11-9-11-9----9---------------------------------|
|---------------------------------12---12-10-9-10----------------------|
|-------------------------------------------------12==-12==-12==-12==--|
|----------------------------------------------------------------------|

4:36

|--------------------------------------------------------------------|
|--11h2p11-9-11-9---------------9-11-9-11-9-9---11==-11==-11==-11==--|
|-----------------12-10-9-10-12--------------------------------------|
|--------------------------------------------------------------------|
|--------------------------------------------------------------------|
|--------------------------------------------------------------------|

4:44

|---------------------------------------------------------------------------|
|---------------------------------------------------------------------------|
|11-12-14-14/16-14-14-12-11h12p11-9-11-9------------------------------------|
|----------------------------------------12-10-9-10-9-10--------------------|
|--------------------------------------------------------12==-12==-12==-12==|
|---------------------------------------------------------------------------|

Solo

4:59

|---------------------------------------------------------------|
|--13p12p11-13p12p11-13p12p11-13-15p13p12-15p13p12-15p13p12-15--|
|---------------------------------------------------------------|
|---------------------------------------------------------------|
|---------------------------------------------------------------|
|---------------------------------------------------------------|

5:02

|---------------------------------------------------------------|
|---------------------------------------------------------------|
|--13p12p11-13p12p11-13p12p11-13-15p13p12-15p13p12-15p13p12-15--|
|---------------------------------------------------------------|
|---------------------------------------------------------------|
|---------------------------------------------------------------|

Repeat

5:11                                  5:16

|-------------------------------------------------------|
|----------------------------------------------9--------|
|--12^-12-9---12^-10-9-10-9--------------10-12---12-10--|
|-----------------------------12-10---12----------------|
|-------------------------------------------------------|
|-------------------------------------------------------|
                                                   Repeat
_____________________________________________________________________________

Outro

[5:20 - Same as Bridge]








Добавлено: 24.06.2013
Другие материалы по этой песне:
  • Аккорды и текст

Страница создана 24.06.2013
http://primanota.ru/wolfmother/in-the-castle-chords.htm
Привет, Гость.
Предлагаем пройти революционный курс по гитаре.
Подарок от PrimaNota.Ru, забирай!