PrimaNota.ru - самый крупный в мире бесплатный архив песенных текстов, аккордов, табулатур и нот


Wednesday 13 - Monsters Of The Universe - бас-таба, видео

Регистрация Запомнить меня
Войти через:  Facebook Google Twitter Vk Yandex Mail.ru

Wednesday 13 - Monsters Of The Universe - бас-таба, видео

Печатать
Просмотров: 173
-------------------------------------------------------------------------------
                            Monsters Of The Universe - Wednesday 13
-------------------------------------------------------------------------------
Tabbed by: Andu Needle
E-mail: sulfur_in_my_lungs@yahoo.com

Intro:

F|---------------------------------------------------------------------------|
C|---------------------------------------------------------------------------|
G|---------------------------------------------------------------------------|
C|-000-0-030-000-0-050-000-0-030-000-00-5-3----------------------------------|(x2)

F|---------------------------------------------------------------------------|
C|---------------------------------------------------------------------------|
G|---------------------------------------------------------------------------|
C|-x2-2-2-5-5-5-5-4-4-4-4-7-77-2-5-3--x2-2-2-5-5-5-5-4-4-4-44-0-222----------|

Verse:

F|---------------------------------------------------------------------------|
C|---------------------------------------------------------------------------|
G|---------------------------------------------------------------------------|
C|-000-0-030-000-0-050-000-0-030-000-00-5-3----------------------------------|(x2)

F|---------------------------------------------------------------------------|
C|---------------------------------------------------------------------------|
G|---------------------------------------------------------------------------|
C|-x2-2-2-5-5-5-5-4-4-4-4-7-77-2-5-3-----------------------------------------|(x2)

Pre chorus:

F|---------------------------------------------------------------------------|
C|---------------------------------------------------------------------------|
G|---------------------------------------------------------------------------|
C|-8757777777777777-8752222222222222-----------------------------------------|(x2)

Chorus:

F|---------------------------------------------------------------------------|
C|---------------------------------------------------------------------------|
G|---------------------------------------------------------------------------|
C|-x2-2-2-5-5-5-5-4-4-4-4-7-77-2-5-3-----------------------------------------|(x3)

F|---------------------------------------------------------------------------|
C|---------------------------------------------------------------------------|
G|---------------------------------------------------------------------------|
C|-x2-2-2-5-5-5-5-4-4-4-44-0-222---------------------------------------------|

Verse 2 is the same as the first one!
Pre chorus 2 is the same as the first one!
Chorus 2 is the same as the first one!

Bridge and its variation:

F|---------------------------------------------------------------------------|
C|---------------------------------------------------------------------------|
G|---------------------------------------------------------------------------|
C|-55-44-333333333333-55-77-222222222222-------------------------------------|(x2)

F|---------------------------------------------------------------------------|
C|---------------------------------------------------------------------------|
G|---------------------------------------------------------------------------|
C|-55-44-3xx-3xx-3xx-3xx-5555-7777-2xx-2xx-2xx-2xx---------------------------|

F|---------------------------------------------------------------------------|
C|---------------------------------------------------------------------------|
G|---------------------------------------------------------------------------|
C|-5555-4444-3xx-3xx-3xx-3xx-5555-7777-2xx-2xx-2xx-2xx-----------------------|(x2)

Solo til the end:

F|---------------------------------------------------------------------------|
C|---------------------------------------------------------------------------|
G|---------------------------------------------------------------------------|
C|-55-44-333333333333-55-77-222222222222-------------------------------------|
Добавлено: 11.05.2015
Другие материалы по этой песне:
  • Аккорды и текст

Страница создана 11.05.2015
http://primanota.ru/wednesday-13/monsters-of-universe-chords.htm
Привет, Гость.
Предлагаем пройти революционный курс по гитаре.
Подарок от PrimaNota.Ru, забирай!