PrimaNota.ru - самый крупный в мире бесплатный архив песенных текстов, аккордов, табулатур и нот


Wednesday 13 - We All Die - текст песни, таба, бас-таба, видео

Регистрация Запомнить меня
Войти через:  Facebook Google Twitter Vk Yandex Mail.ru

Wednesday 13 - We All Die - текст песни, таба, бас-таба, видео

Печатать
Просмотров: 172
-----------------------------------------------------------------------------
                           Wednesday 13 - We All Die
-----------------------------------------------------------------------------

Tabbed by: Metalrock4ever

Tuning: CGCFAD

Intro:
D|-----------------------------|
A|-----------------------------|
F|-----------------------------|
C|-----------------------------| x4
G|--------7--------------------|
C|-101010---777-10-333-2-555-7-|

Solo Part:
(Play after the riff is played three times)
D|---------------------------------|
A|-10b-10b-10b-8~-5-6-5-3-6-5-3-1~-|
F|---------------------------------|
C|---------------------------------|
G|---------------------------------|
C|---------------------------------|


Verse:
D|---------------------------------------------|
A|---------------------------------------------|
F|---------------------------------------------|
C|---------------------------------------------| x2
G|-----------7x--------------------------------|
C|-10x10x10x----7x7x7x-10x-3x3x3x-2x-5x5x5x-7x-|

D|------------------------------|
A|------------------------------|
F|------------------------------|
C|-101010-14-777-10-333-2-555-7-| 
G|-101010-14-777-10-333-2-555-7-|
C|-101010-14-777-10-333-2-555-7-|

D|-----------------------------|
A|-----------------------------|
F|-----------------------------|
C|-101010-14-777-10-333-2-5555-| 
G|-101010-14-777-10-333-2-5555-|
C|-101010-14-777-10-333-2-5555-|


Pre-Chorus:
|-----------|
|-----------|
|-----------|
|-3333-5575-| x3
|-3333-5575-|
|-3333-5575-|

D|---------------------|
A|---------------------|
F|---------------------|
C|-3333-3333-5555-7799-|
G|-3333-3333-5555-7799-|
C|-3333-3333-5555-7799-|

Solo Part:
D|-----------------------------------------------------|
A|-------------------------------3~-33-------0~-1-3-1~-|
F|-5~-55-4~-44-5~-55-4~-44-5~-55-4~-44-5~-55-0~--------|
C|-----------------------------------------------------|
G|-----------------------------------------------------|
C|-----------------------------------------------------|


Chorus:
D|------------------------------|
A|------------------------------|
F|------------------------------|
C|-101010-14-777-10-333-2-555-7-|  x4
G|-101010-14-777-10-333-2-555-7-|
C|-101010-14-777-10-333-2-555-7-|

Solo Part:
D|-------------|
A|-------------|
F|-10-9-7-5-5~-|
C|-------------|  x3
G|-------------|
C|-------------|

Post-Chorus:
D|------------------------------|
A|------------------------------|
F|------------------------------|
C|-101010-14-777-10-333-2-555-7-|  x2
G|-101010-14-777-10-333-2-555-7-|
C|-101010-14-777-10-333-2-555-7-|


Solo Part:
(Play after the riff is played once)
D|---------------------------------|
A|-10b-10b-10b-8~-5-6-5-3-6-5-3-1~-|
F|---------------------------------|
C|---------------------------------|
G|---------------------------------|
C|---------------------------------|


Verse 2:
D|---------------------------------------------|
A|---------------------------------------------|
F|---------------------------------------------|
C|---------------------------------------------| x2
G|-----------7x--------------------------------|
C|-10x10x10x----7x7x7x-10x-3x3x3x-2x-5x5x5x-7x-|

D|------------------------------|
A|------------------------------|
F|------------------------------|
C|-101010-14-777-10-333-2-555-7-| 
G|-101010-14-777-10-333-2-555-7-|
C|-101010-14-777-10-333-2-555-7-|

D|-----------------------------|
A|-----------------------------|
F|-----------------------------|
C|-101010-14-777-10-333-2-5555-| 
G|-101010-14-777-10-333-2-5555-|
C|-101010-14-777-10-333-2-5555-|


Pre-Chorus:
|-----------|
|-----------|
|-----------|
|-3333-5575-| x3
|-3333-5575-|
|-3333-5575-|

D|---------------------|
A|---------------------|
F|---------------------|
C|-3333-3333-5555-7799-|
G|-3333-3333-5555-7799-|
C|-3333-3333-5555-7799-|

Solo Part:
D|-----------------------------------------------------|
A|-------------------------------3~-33-------0~-1-3-1~-|
F|-5~-55-4~-44-5~-55-4~-44-5~-55-4~-44-5~-55-0~--------|
C|-----------------------------------------------------|
G|-----------------------------------------------------|
C|-----------------------------------------------------|


Chorus 2:
D|------------------------------|
A|------------------------------|
F|------------------------------|
C|-101010-14-777-10-333-2-555-7-|  x4
G|-101010-14-777-10-333-2-555-7-|
C|-101010-14-777-10-333-2-555-7-|

Solo Part:
D|-------------|
A|-------------|
F|-10-9-7-5-5~-|
C|-------------|  x3
G|-------------|
C|-------------|


Bridge:
D|------------------------------|
A|------------------------------|
F|------------------------------|
C|-101010-14-777-10-333-2-555-7-|  x4
G|-101010-14-777-10-333-2-555-7-|
C|-101010-14-777-10-333-2-555-7-|

Solo Part:
D|-33-3-3-33-3-3-3333-8h6-3-3~-----3-3-3-----0-0-3333-3b-3b-|
A|-11-1-1-11-1-1---------------4h5-1-1-1-4h5-1-1------------|
F|----------------------------------------------------------|
C|----------------------------------------------------------|
G|----------------------------------------------------------|
C|----------------------------------------------------------|

D|-13h12-10-12-10----------10h12-10-------------------------------|
A|----------------13-12-13----------13-12-13-12-13----------------|
F|-------------------------------------------------12-10-9-10-9-7-|
C|----------------------------------------------------------------|
G|----------------------------------------------------------------|
C|----------------------------------------------------------------|

D|--------------|
A|----8~-8~-10~-|
F|-5~-----------|
C|--------------|
G|--------------|
C|--------------|


Pre-Chorus:
|-----------|
|-----------|
|-----------|
|-3333-5575-| x3
|-3333-5575-|
|-3333-5575-|

D|---------------------|
A|---------------------|
F|---------------------|
C|-3333-3333-5555-7799-|
G|-3333-3333-5555-7799-|
C|-3333-3333-5555-7799-|

Solo Part:
D|-----------------------------------------------------|
A|-------------------------------3~-33-------0~-1-3-1~-|
F|-5~-55-4~-44-5~-55-4~-44-5~-55-4~-44-5~-55-0~--------|
C|-----------------------------------------------------|
G|-----------------------------------------------------|
C|-----------------------------------------------------|


Final Chorus:
D|------------------------------|
A|------------------------------|
F|------------------------------|
C|-101010-14-777-10-333-2-555-7-|  x4
G|-101010-14-777-10-333-2-555-7-|
C|-101010-14-777-10-333-2-555-7-|

Solo Part:
D|-------------|
A|-------------|
F|-10-9-7-5-5~-|
C|-------------|  x3
G|-------------|
C|-------------|

Outro:
D|-----------------------------|
A|-----------------------------|
F|-----------------------------|
C|-----------------------------| x4
G|--------7--------------------|
C|-101010---777-10-333-2-555-7-|

End on:
D|-----|
A|-----|
F|-----|
C|-10~-|
G|-10~-|
C|-10~-|

************************************

| /   slide up
| \   slide down
| h   hammer-on
| ~   vibrato
| x   Mute note
| b   Bend

************************************

If you have any comments/corrections, please say in either the comments box or leave me 
a message.
Good luck and enjoy!
Добавлено: 22.10.2013
Другие материалы по этой песне:
  • Аккорды и текст

Страница создана 07.07.2013
http://primanota.ru/wednesday-13/we-all-die-chords.htm
Привет, Гость.
Предлагаем пройти революционный курс по гитаре.
Подарок от PrimaNota.Ru, забирай!