PrimaNota.ru - самый крупный в мире бесплатный архив песенных текстов, аккордов, табулатур и нот


Wednesday 13 - Keep Watching The Skies - таба, бас-таба, видео

Регистрация Запомнить меня
Войти через:  Facebook Google Twitter Vk Yandex Mail.ru

Wednesday 13 - Keep Watching The Skies - таба, бас-таба, видео

Печатать
Просмотров: 142
-------------------------------------------------------------------------------
                             Keep Watching The Skies - Wednesday 13
-------------------------------------------------------------------------------
Tabbed by:Jonny Ford
Youtube Cover: https://www.youtube.com/watch?v=k2QLJ58Y1II

Tuning: Drop C

Intro/Main Riff: X2
e|---------------------------------------------------------------------------|
B|---------------------------------------------------------------------------|
G|---------------------------------------------------------------------------|
D|-----2-----2-----2-----2-5-3-2-2---------------------2-----2-----2-----2---|
A|-----2-----2-----2-----2-5-3-2-2---------------------2-----2-----2-----2---|
E|-2-2-2-2-2-2-2-2-2-2-2-2-5-3-2-2-2-2-2-2-2-2-2-2-2-2-2-2-2-2-2-2-2-2-2-2---|
   x x   x x   x x   x x           x x x x x x x x x x   x x   x x   x x
e|---------------------------------------------------------------------------|
B|---------------------------------------------------------------------------|
G|---------------------------------------------------------------------------|
D|-0-0-0-2-------------------------------------------------------------------|
A|-0-0-0-2-------------------------------------------------------------------|
E|-0-0-0-2-2-2-2-2-2-2-2-2---------------------------------------------------|
           x x x x x x x x

Verse: X2
e|---------------------------------------------------------------------------|
B|---------------------------------------------------------------------------|
G|---------------------------------------------------------------------------|
D|---2---2---2---2-5-3-2-2-------------------2---2---2---2-0-0-0-2-----------|
A|---2---2---2---2-5-3-2-2-------------------2---2---2---2-0-0-0-2-----------|
E|-2-2-2-2-2-2-2-2-5-3-2-2-2-2-2-2-2-2-2-2-2-2-2-2-2-2-2-2-0-0-0-2-2-2-2-2---|
   x   x   x   x           x x x x x x x x x   x   x   x           x x x x
e|---------------------------------------------------------------------------|
B|---------------------------------------------------------------------------|
G|---------------------------------------------------------------------------|
D|---------------------------------------------------------------------------|
A|---------------------------------------------------------------------------|
E|-2-2-2-2-------------------------------------------------------------------|
   x x x x

Pre Chorus: X2
e|---------------------------------------------------------------------------|
B|---------------------------------------------------------------------------|
G|---------------------------------------------------------------------------|
D|-8-7-5-2-----------------8-7-5-2-----------------8-7-5-2-------------------|
A|-8-7-5-2-----------------8-7-5-2-----------------8-7-5-2-------------------|
E|-8-7-5-2-2-2-2-2-2-2-2-2-8-7-5-2-2-2-2-2-2-2-2-2-8-7-5-2-2-2-2-2-2-2-2-2---|
           x x x x x x x x         x x x x x x x x         x x x x x x x x
e|---------------------||----------------------------------------------------|
B|---------------------||--Play this after last time of pre chorus-----------|
G|---------------------||----------------------------------------------------|
D|-0-0-0-2-2-2-2-2-----||--8-7-8-7-5-----------------------------------------|
A|-0-0-0-2-2-2-2-2-----||--8-7-8-7-5-----------------------------------------|
E|-0-0-0-2-2-2-2-2-----||--8-7-8-7-5-----------------------------------------|
           x   x

Intro/Main Riff: X4
Verse: X2
Pre Chorus: X2
Intro/Main Riff: X4

Bridge:
e|---------------------------------------------------------------------------|
B|---------------------------------------------------------------------------|
G|---------------------------------------------------------------------------|
D|-8-7-8-7-5-2-let ring------------------------------------------------------|
A|-8-7-8-7-5-2---------------------------------------------------------------|
E|-8-7-8-7-5-2---------------------------------------------------------------|

(Tremolo pick these notes)
e|-------------------|------------------|------------------------------------|
B|----------------x4-|---------------x4-|-----play this last time------------|
G|-------------------|------------------|------------------------------------|
D|-------------------|------------------|-8-7-8-7-5-2------------------------|
A|-7-10-5-8-7-5-8----|------------------|-8-7-8-7-5-2------------------------|
E|-------------------|-2-5-0-3-2-0-3----|-8-7-8-7-5-2------------------------|
   x x  x x x x x
Intro/Main Riff: X4

Outro:
e|---------------------------------------------------------------------------|
B|-------------let ring------------------------------------------------------|
G|---------------------------------------------------------------------------|
D|-8-7-8-7-5-2---------------------------------------------------------------|
A|-8-7-8-7-5-2---------------------------------------------------------------|
E|-8-7-8-7-5-2---------------------------------------------------------------|

************************************
Добавлено: 13.07.2015
Другие материалы по этой песне:

Страница создана 02.06.2015
http://primanota.ru/wednesday-13/keep-watching-skies-chords.htm
Привет, Гость.
Предлагаем пройти революционный курс по гитаре.
Подарок от PrimaNota.Ru, забирай!