PrimaNota.ru - самый крупный в мире бесплатный архив песенных текстов, аккордов, табулатур и нот


Wednesday 13 - I Aint Got Time To Bleed - бас-таба, видео

Регистрация Запомнить меня
Войти через:  Facebook Google Twitter Vk Yandex Mail.ru

Wednesday 13 - I Aint Got Time To Bleed - бас-таба, видео

Печатать
Просмотров: 40
-------------------------------------------------------------------------------
                             I Ain't Got Time To Bleed - Wednesday 13
-------------------------------------------------------------------------------
Tabbed by: Andu Needle
E-mail: sulfur_in_my_lungs@yahoo.com

Intro:

F|----------------------------------------------------------|
C|----------------------------------------------------------|
G|----------------------------------------------------------|
C|-0~---3~--5~----------------------------------------------|

F|----------------------------------------------------------|
C|----------------------------------------------------------|
G|---------------------------------------3------------------|
C|-0~-5555444~-444444-3~333333-5~555-3-5--------------------|(x2)

Main riff:

F|----------------------------------------------------------|
C|----------------------------------------------------------|
G|----------------------------------------------------------|
C|-0~-6505303565-0-x-0-x-0~---------------------------------|(x4)

Note: The last 0 from the Main riff is also its first one when you play it the second time
Note 2: The last 0 from the Main riff is the Verse's first one!

Verse:

F|----------------------------------------------------------|
C|----------------------------------------------------------|
G|----------------------------------------------------------|
C|-0~-00000000000000-06~-05~-03~-05~------------------------|(x2)

Pre chorus:

F|----------------------------------------------------------|
C|----------------------------------------------------------|
G|------------------------------------3---------------------|
C|-3~-3333333333355-2~22222222222-3-5-----------------------|

Chorus:

F|----------------------------------------------------------|
C|----------------------------------------------------------|
G|---------------------------------------3------------------|
C|-0~-5555444~-444444-3~333333-5~555-3-5--------------------|(x4)

Main riff x4
Verse x2
Pre chorus x1
Chorus x4

Bridge:

F|----------------------------------------------------------|
C|----------------------------------------------------------|
G|----------------------------------------------------------|
C|-3~--5~---------------------------------------------------|(x3)

F|----------------------------------------------------------|
C|----------------------------------------------------------|
G|----------------------------------------------------------|
C|-3~--77777777-77777777------------------------------------|

During the solo you play the Chorus for 4 times!
After the solo you play the intro twice!

The last chorus is the same sa the others!

Main riff x4~
Добавлено: 21.09.2015
Другие материалы по этой песне:
  • Аккорды и текст

Страница создана 21.09.2015
http://primanota.ru/wednesday-13/i-aint-got-time-to-bleed-chords.htm
Привет, Гость.
Предлагаем пройти революционный курс по гитаре.
Подарок от PrimaNota.Ru, забирай!