PrimaNota.ru - самый крупный в мире бесплатный архив песенных текстов, аккордов, табулатур и нот


Wednesday 13 - Planet Eater Interstellar 187 - бас-таба, видео

Регистрация Запомнить меня
Войти через:  Facebook Google Twitter Vk Yandex Mail.ru

Wednesday 13 - Planet Eater Interstellar 187 - бас-таба, видео

Печатать
Просмотров: 117
Уроки эстрадного вокала в Санкт-Петербурге
-------------------------------------------------------------------------------
                             Planet Eater: Interstellar 187 - Wednesday 13
-------------------------------------------------------------------------------
Tabbed by: Andu Needle
E-mail: sulfur_in_my_lungs@yahoo.com

Intro:

F|-------------------------------------------------------------------------|
C|-------------------------------------------------------------------------|
G|-------------------------------------------------------------------------|
C|-77776666333333336666666622223333--77776666333333336666666666666666------|(x2)

Verse:

Note: The notes between the parathesis are played in galop style.

F|-------------------------------------------------------------------------|
C|-------------------------------------------------------------------------|
G|-------------------------------------------------------------------------|
C|-00000000-(000)000000----------------------------------------------------|(x3)

F|-------------------------------------------------------------------------|
C|-------------------------------------------------------------------------|
G|----------6-3------------------------------------------------------------|
C|-00000000-----6-3--------------------------------------------------------|

Intro again!
Verse 2 is like the first one!
Intro again!

Chorus:

F|-------------------------------------------------------------------------|
C|-------------------------------------------------------------------------|
G|-------------------------------------------------------------------------|
C|-0014-01~000104--0014-00~0104101-----------------------------------------|(x4)

F|-------------------------------------------------------------------------|
C|-------------------------------------------------------------------------|
G|-------------------------------------------------------------------------|
C|-00104101----------------------------------------------------------------|(x2)

Solo:

F|-------------------------------------------------------------------------|
C|-------------------------------------------------------------------------|
G|-------------------------------------------------------------------------|
C|-0014-01~000104--0014-00~0104101-----------------------------------------|(x4)

F|-------------------------------------------------------------------------|
C|-------------------------------------------------------------------------|
G|-------------------------------------------------------------------------|
C|-00104101----------------------------------------------------------------|(x2)

Intro again!
Chorus 2 is the same as the first one!

Ending til fade out:

Note: The notes between the parathesis are played in galop style.

F|-------------------------------------------------------------------------|
C|-------------------------------------------------------------------------|
G|-------------------------------------------------------------------------|
C|-77776666333333336666666622223333--777766663333333366666666(666)66666----|
Добавлено: 21.09.2015
Другие материалы по этой песне:
  • Аккорды и текст

Страница создана 21.09.2015
http://primanota.ru/wednesday-13/planet-eater-interstellar-187-chords.htm
Привет, Гость.
Предлагаем пройти революционный курс по гитаре.
Подарок от PrimaNota.Ru, забирай!