PrimaNota.ru - самый крупный в мире бесплатный архив песенных текстов, аккордов, табулатур и нот


Wednesday 13 - Into The Crop Circle - бас-таба, видео

Регистрация Запомнить меня
Войти через:  Facebook Google Twitter Vk Yandex Mail.ru

Wednesday 13 - Into The Crop Circle - бас-таба, видео

Печатать
Просмотров: 115
Уроки эстрадного вокала в Санкт-Петербурге
-------------------------------------------------------------------------------
                             Into The Crop Circle - Wednesday 13
-------------------------------------------------------------------------------
Tabbed by: Andu Needle
E-mail: sulfur_in_my_lungs@yahoo.com

Intro:

F|-------------------------------------------------------------|
C|-------------------------------------------------------------|
G|-------------------------------------------------------------|
C|-00---00---00~---00--00--00--00------------------------------|

Verse:

F|-------------------------------------------------------------|
C|-------------------------------------------------------------|
G|----8\7----7\5----5\3----3/5-----------3333000---------------|
C|-00-----00-----00-----00-----78888555-5----------------------|(x4)

Chorus:

F|-------------------------------------------------------------|
C|-------------------------------------------------------------|
G|-------------------------------------------------------------|
C|-33333333-33333555-00-8\7--00-8\7--00-8\7--00-8\7------------|

F|-------------------------------------------------------------|
C|-------------------------------------------------------------|
G|-------------------------------------------------------------|
C|-33333333-33333333-22222222-11111111-------------------------|

Intro again:

F|-------------------------------------------------------------|
C|-------------------------------------------------------------|
G|-------------------------------------------------------------|
C|-0~---0~---0~---00--00--00--00-------------------------------|

Verse 2 is the same as the first one!
Chorus 2 is the same as the first one!

Intro again:

F|-------------------------------------------------------------|
C|-------------------------------------------------------------|
G|-------------------------------------------------------------|
C|-0~---0~---0~---00--00--00--00-------------------------------|

Bridge:

F|-------------------------------------------------------------|
C|-------------------------------------------------------------|
G|-------------------------------8\7----8\7----8\7----8\7------|
C|-88888888-88888(10)(10)(10)-00-----00-----00-----00----------|(x3)

F|-------------------------------------------------------------|
C|-------------------------------------------------------------|
G|-------------------------------------------------------------|
C|-88888888-88888(10)(10)(10)-77777777-3333-2222-0~------------|

Intro again:

F|-------------------------------------------------------------|
C|-------------------------------------------------------------|
G|-------------------------------------------------------------|
C|-0~---0~---0~---00--00--00--00-------------------------------|

Verse 3 is the same as the others!
Chorus 3 is the same as the others!

Ending note is C!

| /  slide up
| \  slide down
Добавлено: 21.09.2015
Другие материалы по этой песне:
  • Аккорды и текст

Страница создана 21.09.2015
http://primanota.ru/wednesday-13/into-crop-circle-chords.htm
Привет, Гость.
Предлагаем пройти революционный курс по гитаре.
Подарок от PrimaNota.Ru, забирай!