PrimaNota.ru - самый крупный в мире бесплатный архив песенных текстов, аккордов, табулатур и нот


Washya - War Of Nerves - таба, видео

Регистрация Запомнить меня
Войти через:  Facebook Google Twitter Vk Yandex Mail.ru

Washya - War Of Nerves - таба, видео

Печатать
Просмотров: 52
-----------------------------------------------------------------------------
                War Of Nerves - Washya
-----------------------------------------------------------------------------
Tuning: Standard (ebgDAE)
Intro/Verses are palm muted
e|--------------------------------------------|
b|--------------------------------------------|
g|--------------------------------------------|
D|--------7/8---------9\8\7-----------5-----7-|
A|2-5/7---5/6---3/5---7\6\5-7-77777---3-5-3-5-|
E|0-3/5-0-----0-1/3-0-------5-55555-0---3-1---|
PM      *     *     *         ***** *  

Main Riff/Chorus
e|---------------------------------------------------|
b|---------------------------------------------------|
g|---------------------------------------------------|
D|------------8\6\5-----5-3--------10\9-7-7----------|
A|------5/8---6\4\3-7/9-3-1-3/55---8-\7-5-5-7-5-22-4-|
E|-//xx-3/6-0-------5/7-----1/33-0----------5-3-00-2-|
PM          *                    *               

Guitar Solo (end solo on Em)
e|-22b-22-22-22-22b-22-22-22b-22-22-22-22b\-|
b|-------------------------------------21b\-|
g|------------------------------------------|
D|------------------------------------------|
A|------------------------------------------|
E|------------------------------------------|

e|-------------------------------------------------------------------------|
b|-------------------------------------------------------------------------|
g|-------------------------------------------------------------------------|
D|-------------------------------------------------------12-14-16-12-14-16-|
A|-------------------12-14-16-12-14-16-------------------------------------|
E|-12-14-16-12-14-16-------------------12-14-16-12-14-16-------------------|
PM ** ** ** ** ** ** ** ** ** ** ** ** ** ** ** ** ** ** ** ** ** ** ** ** 

e|----------------------------------------------------------------12-14-16-|
b|----------------------------------------------12-14-16-12-14-16----------|
g|-12-14-16-12-14-16----------12-14-16-12-14-16----------------------------|
D|-------------------12-14-16----------------------------------------------|
A|-------------------------------------------------------------------------|
E|-------------------------------------------------------------------------|

e|-12-14-16-12-14-16b-17b-12h17p15p12h17p15p12h17p15p12t19p15p12t19p15p12-|
b|------------------------------------------------------------------------|
g|------------------------------------------------------------------------|
D|------------------------------------------------------------------------|
A|------------------------------------------------------------------------|
E|------------------------------------------------------------------------|

e|-12t20p15p12t19p15p12t20p15p12----------------------------------------|
b|-------------------------------12t19p15p12t20p15p12-------------------|
g|----------------------------------------------------12t20p15p12-------|
D|----------------------------------------------------------------14p12-|
A|----------------------------------------------------------------------|
E|----------------------------------------------------------------------|

e|----------------------------------------------------------------------|
b|----------------------------------------------------------------------|
g|-------------------------14p12h14p12\10p9h10p9/7h9p7p6h7p6/4-2h4p2p0--|
D|----12p11----------13p12----------------------------------------------|
A|-14-------12h14h15----------------------------------------------------|
E|----------------------------------------------------------------------|

e|-------------------------------------------------|
b|-------------------------------------------------|
g|-2h4p2p0-----2p0---2p0---------------------------|
D|---------2p0-----4-----4p2p0---2p0---------------|
A|-----------------------------4-----4p2p0---2p0-2-|
E|-----------------------------------------4-----0-|


Добавлено: 23.10.2013
Другие материалы по этой песне:
  • Аккорды и текст

Страница создана 23.10.2013
http://primanota.ru/washya/war-of-nerves-chords.htm
Привет, Гость.
Предлагаем пройти революционный курс по гитаре.
Подарок от PrimaNota.Ru, забирай!