PrimaNota.ru - самый крупный в мире бесплатный архив песенных текстов, аккордов, табулатур и нот


Washya - Before I Forget - таба, видео

Регистрация Запомнить меня
Войти через:  Facebook Google Twitter Vk Yandex Mail.ru

Washya - Before I Forget - таба, видео

Печатать
Просмотров: 46
-------------------------------------------------------------------------------
			     Before I Forget - Slipknot
-------------------------------------------------------------------------------
Tabbed by:
Email:

Sweet Song!!

Tuning: Drop b (BF#BEG#C#)
Intro
B |--------------------------------------------------------|
F#|--------------------------------------------------------|
B |--------------------------------------------------------|
E |--------------------------------------------------------|
G#|-2-2-2-2-3-2-0-2-2-2-2-2-3-2-0-2-2-2-2-0-55-00-55-00----|
C#|-2-2-2-2-3-2-0-2-2-2-2-2-3-2-0-2-2-2-2-0-55-00-55-00----|

Verses
"Stapled Shut!!"
B |--------------------------------------|
F#|--------------------------------------|
B |--------------------------------------|
E |--------------------------------------|
G#|-2223-2223-22223-2223-2223-0-55-00----|
C#|-2223-2223-22223-2223-2223-0-55-00----|
pm  .... .... ..... .... ....

Chorus
"LISTEN!!! I am a world before I am a man...."
B |-------------------------------------------------------------------------|
F#|-------------------------------------------------------------------------|
B |-------------------------------------------------------------------------|
E |-------------------------------------------------------------------------|
G#|-2-0-2-5-0-2-5-0-8-7-2-0-2-5-0-2-5-0-2\-2-0-2-5-0-2-5-0-8-777-8-7-10-----|
C#|-2-0-2-5-0-2-5-0-8-7-2-0-2-5-0-2-5-0-2\-2-0-2-5-0-2-5-0-8-777-8-7-10-----|


B |-------------|
F#|-------------|
B |-------------|
E |-------------|
G#|-5555-8-7----|
C#|-5555-8-7----|

Next Bit
B |--------------------------------------------------------|
F#|--------------------------------------------------------|
B |--------------------------------------------------------|
E |--------------------------------------------------------|
G#|-2-2-2-2-3-2-0-2-2-2-2-2-3-2-0-2-2-2-2-0-55-00-55-00----|
C#|-2-2-2-2-3-2-0-2-2-2-2-2-3-2-0-2-2-2-2-0-55-00-55-00----|

Verse 2
"I'm Ripped Across the ditch......"
B |--------------------------------------|
F#|--------------------------------------|
B |--------------------------------------|
E |--------------------------------------|
G#|-2223-2223-22223-2223-2223-0-55-00----|
C#|-2223-2223-22223-2223-2223-0-55-00----|
pm  .... .... ..... .... ....

Solo
B |---------------------------------------------------------------|
F#|---------------------------------------------------------------|
B |---------------------------------------------------------------|
E |----4555555-4555555-455-7-5-4555555-4555555--7-5-4---5-4-2-----|
G#|--------------------------------------------------5-------4----|
C#|---------------------------------------------------------------|

"My end justifies my means......."
Guitar 1
B |-------------------------------------|
F#|-------------------------------------|
B |-------------------------------------|
E |-------------------------------------|
G#|-------------------------------------|
C#|-0-2-0-2-3-2-0-2--0-2-0-2-3-2-0-2----|
pm  . . . . . . . .  . . . . . . . .

Guitar 2
B |---------------------------------|
F#|---------------------------------|
B |---------------------------------|
E |---------------------------------|
G#|-222222222222-555555555555555----|
C#|-222222222222-555555555555555----|
pm  ............ ...............
Добавлено: 10.10.2013
Другие материалы по этой песне:
  • Аккорды и текст

Страница создана 10.10.2013
http://primanota.ru/washya/before-i-forget-chords.htm
Привет, Гость.
Предлагаем пройти революционный курс по гитаре.
Подарок от PrimaNota.Ru, забирай!