PrimaNota.ru - самый крупный в мире бесплатный архив песенных текстов, аккордов, табулатур и нот


Washya - When Im Done - таба, видео

Регистрация Запомнить меня
Войти через:  Facebook Google Twitter Vk Yandex Mail.ru

Washya - When Im Done - таба, видео

Печатать
Просмотров: 56
Уроки эстрадного вокала в Санкт-Петербурге
-------------------------------------------------------------------------------
                         When I'm Done - Washya
-------------------------------------------------------------------------------
Tuning: Standard (EBGDAE)
Intro A,                       Am,        
E|---------3-----------3p2----------------------------------------|
B|-----3-----3-----3-----------1p0---------1p0--------------------|
G|---2---2-------2---2-------2-----2-----2-----2------------------|
D|-0-----------0-----------2---------0-2---------0----------------|
A|----------------------------------------------------------------|
E|-------------------------------------------------0h2h3p2-2h3h5~-|
PM                                                 ******* ***** 

Verses  F,                      G,            A,            
E|---------------------------------------------------------------------|
B|---------------------------------------------------------------------|
G|---------4-----------4------------6-----------8-----------8----------|
D|-----3-----3-----3-----3------5-----5-----7-----7-----7-----7-5555/7-|
A|---3---3-------3---3--------5---5-------7---7-------7---7-----3333/5-|
E|-1-----------1------------3-----------5-----------5------------------|
PM * * * *     * * * *      * * * *     * * * *     * * * *  

Chorus
E|-------------------------------------------------------------------|
B|-------------------------------------------------------------------|
G|-------------------------------------------------------------------|
D|-999----999----99-7-77-77-7----77-7--------------------------------|
A|-777-xx-777-xx-77-5-55-55-5-xx-55-5-333----333----33-55-555-55-555-|
E|------------------------------------111-xx-111-xx-11-33-333-33-333-|
PM                                    ***    ***    ** ** *** ** *** 

E|-----------------------------------------------------------------|
B|-----------------------------------------------------------------|
G|-----------------------------------------------------------------|
D|---------------55-555-555-5-55/1010-10-10-1010-10----------------|
A|-77-777-77-777-33-333-333-3-33/8-8--8--8--8-8--8--88-8888-88-8/9-|
E|-55-555-55-555------------------------------------66-6666-66-6/7-|
PM ** *** ** ***                                     ** **** ** *  

Solo (small)
E|---------------------------12-14-15-------15-17-18-20~-|
B|--------------------/10-10----------13-13--------------|
G|-/9-----7h9br7h9p7~------------------------------------|
D|----7h9------------------------------------------------|
A|-------------------------------------------------------|
E|-------------------------------------------------------|
Добавлено: 30.08.2013
Другие материалы по этой песне:
  • Аккорды и текст

Страница создана 30.08.2013
http://primanota.ru/washya/when-im-done-chords.htm
Привет, Гость.
Предлагаем пройти революционный курс по гитаре.
Подарок от PrimaNota.Ru, забирай!