PrimaNota.ru - самый крупный в мире бесплатный архив песенных текстов, аккордов, табулатур и нот


Washya - Welcome To Paris - таба, видео

Регистрация Запомнить меня
Войти через:  Facebook Google Twitter Vk Yandex Mail.ru

Washya - Welcome To Paris - таба, видео

Печатать
Просмотров: 69
-----------------------------------------------------------------------------
                   Welcome To Paris - Washya
-----------------------------------------------------------------------------
Tuning: Standard (EBGDAE)
Intro
E|------------------------------------------|
B|----------------------------------1-11----|
G|-1-1-1-1-1-11-1-1-1-1-1-----------0-00----|
D|-2-0-2-0-2-00-2-0-2-0-2-3-3-3-3-3-2-22-22-|
A|-2-0-2-0-2-00-2-0-2-0-2-3-3-3-3-3-3-33-22-|
E|------------------------1-0-1-0-1------00-|x3

Verses
E|-----------------------------------------------------------------|
B|-----------------------------------------------------------------|
G|-----1-------1-------1-------1-----------------------------------|
D|---2---2---2---2---0---0---0---0-----3-------3-------3-------3---|
A|-2-------2-------0-------0---------3---3---3---3---3---3---3---3-|
E|---------------------------------1-------1-------0-------0-------|

E|---------------------------------0-------0-----|
B|-----1-------1---------------------3-------3---|
G|-------0-------0-----------------------------0-|
D|---2-------2---------2-------2-----------------|
A|-3-------3---------2---2---2---2-------2-------|
E|-----------------0-------0-----------0---------|

Chorus
E|---------------5-----5-----------------------------------------|
B|-----------------5-----5---------------------------------------|
G|-7-777---------------------------------------------------------|
D|-7-777-7-777-3-----7-----7-7-777-10101010-5-----5-----5-3333-2-|
A|-5-555-7-777-3-------------7-777-10101010-5---5-----5---3333-2-|
E|-------5-555-1-------------5-555-8-8-8-8--3-3-----3-----1111-0-|
PM                                            * * * * * *  
Добавлено: 15.08.2013
Другие материалы по этой песне:
  • Аккорды и текст

Страница создана 15.08.2013
http://primanota.ru/washya/welcome-to-paris-chords.htm
Привет, Гость.
Предлагаем пройти революционный курс по гитаре.
Подарок от PrimaNota.Ru, забирай!