PrimaNota.ru - самый крупный в мире бесплатный архив песенных текстов, аккордов, табулатур и нот


Washya - Parallel Proximity - таба

Регистрация Запомнить меня
Войти через:  Facebook Google Twitter Vk Yandex Mail.ru

Washya - Parallel Proximity - таба

Печатать
Просмотров: 56
Уроки эстрадного вокала в Санкт-Петербурге
-----------------------------------------------------------------------------
                        Parallel Proximity - Washya
-----------------------------------------------------------------------------
Tuning: Drop D (DADGBE)
Intro
E|---------------------------------------------------------|
B|---------------------------------------------------------|
G|---------------------------------------------------------|
D|---------------------------------------------------------|
A|-x-x-x-x-x-x-x-x-x-x-x-x-x-x-1-1-x-x-x-x-x-x-x-x-x-x-1-1-|
D|-x-x-x-x-x-x-x-x-x-x-x-x-x-x-1-1-x-x-x-x-x-x-x-x-x-x-1-1-|x3

Verses
E|-------------------------------------------------|
B|-------------------------------------------------|
G|-------------------------------------------------|
D|-------------------------------------------------|
A|-xx-xx-x-xxxx-1-1--1/5-xx-xx-x-xxxx-1-1--1h2p1p0-|
D|-xx-xx-x-xxxx-1-1--1/5-xx-xx-x-xxxx-1-1--1h2p1p0-|

Chorus
E|--------------------------------------------------------------------------|
B|--------------------------------------------------------------------------|
G|-3/555-----------------5-555/8-888----------------------------------------|
D|--------------------------------------------------------------------------|
A|-1/333-5-555/777\3-333-3-333/6-666-6-666h8-/7h8p7-5h7p5\3h5p3p2p0-00-0000-|
D|-------5-555/777\3-333-------------6-666h8-/7h8p7-5h7p5\3h5p3p2p0-00-0000-|
PM       *         *                 *                              ** **** 

Verses
E|-------------------------------------------------|
B|-------------------------------------------------|
G|-------------------------------------------------|
D|-------------------------------------------------|
A|-xx-xx-x-xxxx-1-1--1/5-xx-xx-x-xxxx-1-1--1h2p1p0-|
D|-xx-xx-x-xxxx-1-1--1/5-xx-xx-x-xxxx-1-1--1h2p1p0-|

Guitar Solo (quick and fast)
E|-15p12----------12h15p12----------12h15p14----------14h17p14h17p14h17-19~-|
B|-------13----13----------13----13----------15----15-----------------------|
G|----------14----------------14----------------16--------------------------|
D|--------------------------------------------------------------------------|
A|--------------------------------------------------------------------------|
D|--------------------------------------------------------------------------|

Tuning: Drop D (DADGBE)
Intro
E|---------------------------------------------------------|
B|---------------------------------------------------------|
G|---------------------------------------------------------|
D|---------------------------------------------------------|
A|-x-x-x-x-x-x-x-x-x-x-x-x-x-x-1-1-x-x-x-x-x-x-x-x-x-x-1-1-|
D|-x-x-x-x-x-x-x-x-x-x-x-x-x-x-1-1-x-x-x-x-x-x-x-x-x-x-1-1-|x3

Verses
E|-------------------------------------------------|
B|-------------------------------------------------|
G|-------------------------------------------------|
D|-------------------------------------------------|
A|-xx-xx-x-xxxx-1-1--1/5-xx-xx-x-xxxx-1-1--1h2p1p0-|
D|-xx-xx-x-xxxx-1-1--1/5-xx-xx-x-xxxx-1-1--1h2p1p0-|

Chorus
E|--------------------------------------------------------------------------|
B|--------------------------------------------------------------------------|
G|-3/555-----------------5-555/8-888----------------------------------------|
D|--------------------------------------------------------------------------|
A|-1/333-5-555/777\3-333-3-333/6-666-6-666h8-/7h8p7-5h7p5\3h5p3p2p0-00-0000-|
D|-------5-555/777\3-333-------------6-666h8-/7h8p7-5h7p5\3h5p3p2p0-00-0000-|
PM       *         *                 *                              ** **** 

Verses
E|-------------------------------------------------|
B|-------------------------------------------------|
G|-------------------------------------------------|
D|-------------------------------------------------|
A|-xx-xx-x-xxxx-1-1--1/5-xx-xx-x-xxxx-1-1--1h2p1p0-|
D|-xx-xx-x-xxxx-1-1--1/5-xx-xx-x-xxxx-1-1--1h2p1p0-|
Добавлено: 05.07.2013
Другие материалы по этой песне:
  • Аккорды и текст

Страница создана 05.07.2013
http://primanota.ru/washya/parallel-proximity-chords.htm
Привет, Гость.
Предлагаем пройти революционный курс по гитаре.
Подарок от PrimaNota.Ru, забирай!