PrimaNota.ru - самый крупный в мире бесплатный архив песенных текстов, аккордов, табулатур и нот


Washya - Washed Away - таба, видео

Регистрация Запомнить меня
Войти через:  Facebook Google Twitter Vk Yandex Mail.ru

Washya - Washed Away - таба, видео

Печатать
Просмотров: 49
-------------------------------------------------------------------------------
                     washed away - washya
-------------------------------------------------------------------------------
Tuning: D Tuning (DAFCGD) 
Intro
D|--------------------------|
A|--------------------------|
F|--------------------------|
C|-4br2--7b7b7br-\5---------|
G|-4br2--7b7b7br-\5-----1-3-|
D|-2br0--5b5b5br-\3-1-3---1-|
PM                  * * *   

Verses
D|---------------------------------------|
A|---------------------------------------|
F|---------------------------------------|
C|-------------------4-------------------|
G|-4b-4b-4b-4b-4b-4b-2-4-444-2-----1-3b--|
D|---------------------2-222-0-1-3-------|
PM                             * * * 

Chorus
D|----------------------------------------|
A|----------------------------------------|
F|----------------------------------------|
C|---6p0-5p0-3p0------------0-6-5---------|
G|--------------3h5-----2h3-------5-6-----|
D|-0----------------3-0---------------3-0-|

Guitar Solo (played Slowly)

D|-20b-19-19p17h19b------17----20b-19-------------------------------------|
A|------------------//18----18--------17-18-20----------------------------|
F|---------------------------------------------18-17-15-------------------|
G|------------------------------------------------------17-18-17-17-17\16-|
C|------------------------------------------------------------------------|
D|------------------------------------------------------------------------|

D|------------------------------------------------------------------------|
A|---------------------------------------------------------------17p16p14-|
F|--------------------------------------------15bp13-12h13p12h13----------|
C|-16-16-16\14-14-14-14-14\12-12-12-12-12-12b-----------------------------|
G|------------------------------------------------------------------------|
D|------------------------------------------------------------------------|

D|----------17p16p14\12h15p14p12\10h13p12p10-------------------------------|
A|-17p16p14----------------------------------8-7---8-7---------------------|
F|-----------------------------------------------9-----7-9-----------------|
C|---------------------------------------------------------9-7---7---9-7---|
G|-------------------------------------------------------------9---9-----9-|
D|-------------------------------------------------------------------------|

D|-----|
A|-----|
F|-----|
C|-----|
G|-7-9-|
D|-----|
Добавлено: 12.06.2013
Другие материалы по этой песне:
  • Аккорды и текст

Страница создана 12.06.2013
http://primanota.ru/washya/washed-away-chords.htm
Привет, Гость.
Предлагаем пройти революционный курс по гитаре.
Подарок от PrimaNota.Ru, забирай!