PrimaNota.ru - самый крупный в мире бесплатный архив песенных текстов, аккордов, табулатур и нот


Washya - Waterlogged - таба

Регистрация Запомнить меня
Войти через:  Facebook Google Twitter Vk Yandex Mail.ru

Washya - Waterlogged - таба

Печатать
Просмотров: 52
Уроки эстрадного вокала в Санкт-Петербурге
-----------------------------------------------------------------------------
             Waterlogged - Washya
-----------------------------------------------------------------------------
Tuning: Standard (EBGDAE)
Intro
E|---------------------------------------------------|
B|---------------------------------------------------|
G|-----5h7h8p7p5---5-----3h5h6p5p3---3---------------|
D|-3-2-----------7---3-2-----------5-----3-3-2-22232-|
A|-3-2---------------3-2---------------5---3-2-22232-|
E|-1-0---------------1-0-------------------1-0-00010-|
PM * *               * *                   * * *** * 

Verses
E|--------------------------------------------------------|
B|--------------------------------------------------------|
G|--------------------------------------------------------|
D|-3-2---8\7--2-3-2---10\9--2-3-2---4\3-0h2p0---------3-2-|
A|-3-2---8\7--2-3-2---10\9--2-3-2---4\3-------3p2p0h2-3-2-|
E|-1-0-0-6\5--0-1-0-0-8-\7--0-1-0-0-2\1---------------1-0-|
PM * * *      * * * *       * * * *                   * * 

Chorus
E|-----------2-0-----------1-----------3-1-----------0-|
B|---------3-3-0---------2-2-----------4-2-----------0-|
G|-------4---4-2-------3---3-----------5-3-----------0-|
D|-----4-----4-2-----3-----3-------3h5-5-3-------3p2-2-|
A|---2-------2-0---1-------1---3h5-----3-1---3h5-----2-|
E|-0---------0-0-0---------0-0---------0-0-0---------0-|
PM *             *           *             *    

Guitar Solo
E|-----------------11-----------------------14-14h15----15h16bh18-----|
B|-----------------11--------------/12-12b~----------14-----------16~-|
G|-9-9b----7----9b----9-----7h9p7~------------------------------------|
D|------99---99---------7h9-------------------------------------------|
A|--------------------------------------------------------------------|
E|--------------------------------------------------------------------|

E|----------------------------------------------------------------15p14p12~-|
B|----------------------------------------------------14p12----14-----------|
G|-------------------------------------14----12h14h15-------14--------------|
D|-------------------14----12h14h15p14----14--------------------------------|
A|-------14----12h14----14--------------------------------------------------|
E|-12h14----14--------------------------------------------------------------|
PM *********************************** 

E|-12h14h15-17bp16----17----17----18~-----15h18p15----15h18p15----15h18p15-|
B|-----------------16----16----16-----/16----------16----------16----------|
G|-------------------------------------------------------------------------|
D|-------------------------------------------------------------------------|
A|-------------------------------------------------------------------------|
E|-------------------------------------------------------------------------|

E|----15h18p15----------------------------------------14--------|
B|-16----------16bp14-------14----16~-1616p14-1414p12----12-12~-|
G|--------------------14h16----16-------------------------------|
D|--------------------------------------------------------------|
A|--------------------------------------------------------------|
E|--------------------------------------------------------------|

E|---------/10p8p7----8p7----------------------------------------------|
B|-----------------10-----10p8p7----8p7--------------------------------|
G|-/9----------------------------10-----10p8p7-------8p7---------------|
D|----7-7~-------------------------------------8p7p5-----5-8p7p5-----5-|
A|---------------------------------------------------------------8p7---|
E|---------------------------------------------------------------------|

E|--------------------------------------|
B|--------------------------------------|
G|--------------------------------------|
D|-----------5--------------------------|
A|-8p7p5-8p7---8p7p5-----------5--------|
E|-------------------8p7p5-8p7----5p3-0-|


Chorus
E|-----------2-0-----------1-----------3-1-----------0-|
B|---------3-3-0---------2-2-----------4-2-----------0-|
G|-------4---4-2-------3---3-----------5-3-----------0-|
D|-----4-----4-2-----3-----3-------3h5-5-3-------3p2-2-|
A|---2-------2-0---1-------1---3h5-----3-1---3h5-----2-|
E|-0---------0-0-0---------0-0---------0-0-0---------0-|
PM *             *           *             *

Verses
E|--------------------------------------------------------|
B|--------------------------------------------------------|
G|--------------------------------------------------------|
D|-3-2---8\7--2-3-2---10\9--2-3-2---4\3-0h2p0---------3-2-|
A|-3-2---8\7--2-3-2---10\9--2-3-2---4\3-------3p2p0h2-3-2-|
E|-1-0-0-6\5--0-1-0-0-8-\7--0-1-0-0-2\1---------------1-0-|
PM * * *      * * * *       * * * *                   * * 

Outro (fade out on this riff)
E|---------------------------|
B|---------------------------|
G|---------------------------|
D|-22/8-/7-5-22/10-0h3p2p0-2-|
A|-22/8------22/10---------2-|
E|-00/6------00/8----------0-|
PM **        **              
Добавлено: 24.08.2013
Другие материалы по этой песне:
  • Аккорды и текст

Страница создана 24.08.2013
http://primanota.ru/washya/waterlogged-chords.htm
Привет, Гость.
Предлагаем пройти революционный курс по гитаре.
Подарок от PrimaNota.Ru, забирай!