PrimaNota.ru - самый крупный в мире бесплатный архив песенных текстов, аккордов, табулатур и нот


Trivium - Pull Me From The Void - таба, видео

Регистрация Запомнить меня
Войти через:  Facebook Google Twitter Vk Yandex Mail.ru

Trivium - Pull Me From The Void - таба, видео

Печатать
Просмотров: 99
-------------------------------------------------------------------------------
                             PULL ME FROM THE VOID - Trivium
-------------------------------------------------------------------------------
Tabbed by: JediMaster123
E-mail: mjd_beef@live.com

Not too difficult a song, one of the cooler songs on the record.


Tuning - Half Step Down (7 String)

INTRO/CHORUS/OUTRO
Rythm 1
 Eb|---------------------------------------------------------||
 Bb|---------------------------------------------------------||
 Gb|---------------------------------------------------------||
 Db|---------------------------------------------------------||
 Ab|---------------4--5--0-----------------------------------||\
 Eb|---7~----\2~-------------/7~---/3~------5----2~-----/6~--|| \
 Bb|---------------------------------------------------------||  \
Ryhtm 2                                                           x2  
 Eb|---------------------------------------------------------||  / 
 Bb|---------------------------------------------------------|| /  
 Gb|---------------------------------------------------------||/  
 Db|---------------2--4--------------------------------------|| 
 Ab|---5~----\2~---------4---/5~---/2~------4----1~-----/4~--||
 Eb|---------------------------------------------------------||
 Bb|---------------------------------------------------------||



MAIN RIFF (PRE VERSE/PRE CHORUS)

Lead 1
 Eb|-----------------------------------------------------------------|
 Bb|-----------------------------------------------------------------|
 Gb|-------------------------------------------------11--9-----------|
 Db|---12-11h12p11-9----9------------12-11h12p11-9---------12--11----|
 Ab|-----------------12---10-9~--------------------------------------|
 Eb|-0----------------------------0----------------------------------|
 Bb|-----------------------------------------------------------------|
Lead 2
 Eb|-----------------------------------------------------------------|
 Bb|-------------------------------------------------10--------------|
 Gb|---11--9h11p9--7----7------------11--9h11p9--7-------12-11--9----|
 Db|-----------------11----9-7~--------------------------------------|
 Ab|-----------------------------------------------------------------|
 Eb|-7----------------------------0----------------------------------|
 Bb|-----------------------------------------------------------------|
Rythm 
 Eb|------------------------------------------------------------------|
 Bb|------------------------------------------------------------------|
 Gb|------------------------------------------------------------------|
 Db|------------------------------------------------------------------|
 Ab|-9----------------------------5-----------------------------------|
 Eb|-7----------------------------3-----------------------------------|
 Bb|------------------------------------------------------------------|

Lead 1
 Eb|-----------------------------------------------------|
 Bb|-----------------------------------------------------|
 Gb|--------------------------------9-------------9-11---|
 Db|---12-11h12p11-9----9-------------12-11----12--------|
 Ab|-----------------12---10-9~--12---------13-----------|
 Eb|-0---------------------------------------------------|
 Bb|-----------------------------------------------------|
Lead 2
 Eb|-----------------------------------------------------|
 Bb|-----------------------------------------------------|
 Gb|---11--9h11p9--7----7------------12-11-9----11-12-14-|
 Db|-----------------11----9-7~--------------------------|
 Ab|------------------------------12---------13----------|
 Eb|-7---------------------------------------------------|
 Bb|-----------------------------------------------------|
Rythm 
 Eb|-----------------------------------------------------|
 Bb|-----------------------------------------------------|
 Gb|-----------------------------------------------------|
 Db|--7--------------------------------------------------|
 Ab|--5--------------------------7-----------9-----------|
 Eb|-----------------------------5-----------6-----------|
 Bb|-----------------------------------------------------|



VERSE

Ryhtm 
 Eb|-----------------------------------------------------------------|
 Bb|-----------------------------------------------------------------|
 Gb|-----------------------------------------------------------------|
 Db|-----------------------------------------------------------------|
 Ab|-9-------------------------------9-------------------------------|
 Eb|-7-7-7-7-7-7-7-7-7-7-7-7-7-7-7---6-6-6-6-6-6-6-6-6-6-6-6-6-6-6---|
 Bb|-----------------------------------------------------------------|

 Eb|-----------------------------------------------------------------|
 Bb|-----------------------------------------------------------------|
 Gb|-----------------------------------------------------------------|
 Db|-----------------------------------------------------------------|
 Ab|-7--------------------------------7------------------------------|
 Eb|-5-5-5-5-5-5-5-5-5-5-5-5-5-5-5----4-4-4-4-4-4-4-4-4-4-4-4-4-4-4--|
 Bb|-----------------------------------------------------------------|

 Eb|-----------------------------------------------------------------|
 Bb|-----------------------------------------------------------------|
 Gb|-----------------------------------------------------------------|
 Db|-----------------------------------------------------------------|
 Ab|-9-------------------------------12------------------------------|
 Eb|-7-7-7-7-7-7-7-7-7-7-7-7-7-7-7----9-9-9-9-9-9-9-9-9-9-9-9-9-9-9--|
 Bb|-----------------------------------------------------------------|

 Eb|-------------------------------------------------------------------------|
 Bb|-------------------------------------------------------------------------|
 Gb|-------------------------------------------------------------------------|
 Db|-------------------------------------------------------------------------|
 Ab|-12---------------------------------------------9-------------9--7--5--4-|
 Eb|-10-10-10-10-10-10-10-10-10-10-10-10-10-10-10---6-6-6-6-6-6-6------------|
 Bb|-------------------------------------------------------------------------|



PRE CHORUS

Lead (Play MAIN RIFF)

Ryhtm 1
 Eb|---------------------------------------------------------|
 Bb|---------------------------------------------------------|
 Gb|---------------------------------------------------------|
 Db|---------------------------------------------------------|
 Ab|-5-5-5------7-7-7----9-9-9-----12-12-12-12--12-12-12-12--|
 Eb|-3-3-3------5-5-5----7-7-7------9--9--9--9--10-10-10-10--|
 Bb|---------------------------------------------------------|
Rythm 2
 Eb|---------------------------------------------------------|
 Bb|---------------------------------------------------------|
 Gb|---------------------------------------------------------|
 Db|---------------------------------------------------------|
 Ab|-5-5-5------7-7-7----9-9-9-----12-12-12-12--12-12-12-12--|
 Eb|-3-3-3------5-5-5----7-7-7------9--9--9--9--10-10-10-10--|
 Bb|---------------------------------------------------------|

Rythm 1
 Eb|------------------------------------------------------------------|
 Bb|------------------------------------------------------------------|
 Gb|------------------------------------------------------------------|
 Db|-5-5-5-5-5-5-5-5--7--7--7--7--7-7--7-7----------------------------|
 Ab|-x-x-x-x-x-x-x-x--x--x--x--x--x-x--x-x--4-5-4-5-4-5-4-5-4-5-4-5---|
 Eb|-3-3-3-3-3-3-3-3--5--5--5--5--5-5--5-5--2-3-2-3-2-3-2-3-2-3-2-3---|
 Bb|------------------------------------------------------------------|
Ryhtm 2
 Eb|----------------------------------------------------------------------|
 Bb|----------------------------------------------------------------------|
 Gb|----------------------------------------------------------------------|
 Db|-9-9-9-9-9-9-9-9-11-11-11-11-11-11-11-11-8-9-8-9-8-9-8-9-8-9-8-9------|
 Ab|-x-x-x-x-x-x-x-x-x--x--x--x--x--x--x--x--x-x-x-x-x-x-x-x-x-x-x-x------|
 Eb|-7-7-7-7-7-7-7-7-9--9--9--9--9--9--9--9--6-7-6-7-6-7-6-7-6-7-6-7------|
 Bb|----------------------------------------------------------------------|

FILL

Lead   (First Pre Chorus)        (Second Pre Chorus)
 Eb|--------------------||--------------------------||
 Bb|--<12>-Dive---------||--------------------------||
 Gb|--------------------||--------------------------||
 Db|--------------------||--------------9-7-5-------||
 Ab|--------------------||--------------------9-7-5-||
 Eb|--------------------||--------------------------||
 Bb|--------------------||--------------------------||


BRIDGE


Ryhtm 1
 Eb|---------------------------------------------|
 Bb|---------------------------------------------|
 Gb|---------------------------------------------|
 Db|---------------------------------------------|
 Ab|-2-2-2-2--2--2-2-2-2-2-----------------------|
 Eb|-2-2-2-2--2--2-2-2-2-2-------------7---------|
 Bb|-0-0-0-0--0--0-0-0-0-0-----10\--3----3--2~~--|
                                                 ____
Rythm 2                                          |4.
 Eb|-------------------------------------------||-------------------------------|
 Bb|-------------------------------------------||-------------------------------|
 Gb|-------------------------------------------||-------------------------------|
 Db|-------------------------------------------||-------------------------------|
 Ab|-5-5-5-5--5--5-5-5-5-----------------------||-5-5-5-5--5--5-5-5-5----5---7--|
 Eb|-5-5-5-5--5--5-5-5-5---------2---------/7--||-5-5-5-5--5--5-5-5-5----3---5--|
 Bb|-3-3-3-3--3--3-3-3-3-------3---3--2--3-----||-3-3-3-3--3--3-3-3-3-----------|


SOLO

Lead
 Eb|-------------10-14-12-10--10----------------------------|
 Bb|----------12------------14--14-12-14-11-\8-11-8---------|
 Gb|-------11---------------------------------------9-------|
 Db|----12--------------------------------------------11~---|
 Ab|-14-----------------------------------------------------|
 Eb|--------------------------------------------------------|
 Bb|--------------------------------------------------------|
Rythm 
 Eb|--------------------------------------------------------|
 Bb|--------------------------------------------------------|
 Gb|--------------------------------------------------------|
 Db|--------------------------------------------------------|
 Ab|--------------------------------------------------------|
 Eb|-7-7-7-7-7-7-7-7-7-7-7-7---6-6-6-6-6-6-6-6-6-6-6-6------|
 Bb|--------------------------------------------------------|

Lead
 Eb|---------------------------------------------12b(Full)r-10--12~~--14b(1/2)--14~~-|
 Bb|---------------------------------------------------------------------------------|
 Gb|-6---7---9---/11---9---7-----6~---7----------------------------------------------|
 Db|----------------------------------------9~~--------------------------------------|
 Ab|---------------------------------------------------------------------------------|
 Eb|---------------------------------------------------------------------------------|
 Bb|---------------------------------------------------------------------------------|
Rythm 
 Eb|-------------------------------------------------------------------------|
 Bb|-------------------------------------------------------------------------|
 Gb|-------------------------------------------------------------------------|
 Db|-------------------------------------------------------------------------|
 Ab|-------------------------------------------------------------------------|
 Eb|-5-5-5-5-5-5-5-5-5--4-4-4-4-4-4-4-4--7-7-7-7-7-7-7-7-7--9-9-9-9-9-9-9-9-9|
 Bb|-------------------------------------------------------------------------|

Lead
 Eb|-17-15-14----------------------------------------------------------------|
 Bb|----------17-15-14----------------------------------------------17-19-20-|
 Gb|-------------------14-12-11----------------------------15-16-18----------|
 Db|----------------------------14-12-11----------14-16-17-------------------|
 Ab|-------------------------------------13-14-16----------------------------|
 Eb|-------------------------------------------------------------------------|
 Bb|-------------------------------------------------------------------------|
Rythm 
 Eb|-------------------------------------------------------------------------|
 Bb|-------------------------------------------------------------------------|
 Gb|-----------------------------------------------------------------9-11-12-|
 Db|-------------------------------------------------------8--9--11----------|
 Ab|-----------------------------------------------7--9-10-------------------|
 Eb|-10-10-10-10-10-10-10-10-10-10-10-10--6--7--9----------------------------|
 Bb|-------------------------------------------------------------------------|

Lead
 Eb|-------------------------------------------------------------------------|
 Bb|-\12~--\10--\8--10~~-----------------------------------------------------|
 Gb|----------------------12--11--9--9h11~-<11>~--9--------------------------|
 Db|--------------------------------------------------11-12-9~~--------------|
 Ab|-------------------------------------------------------------------------|
 Eb|-------------------------------------------------------------------------|
 Bb|-------------------------------------------------------------------------|

Rythm (Play PRE CHORUS)

Lead
 Eb|-10p7---------------------7--12p9-------------------------9--|
 Bb|------8-----------------8---------10-------------------10----|
 Gb|--------7-------------7--------------9---------------9-------|
 Db|----------9---------9------------------11---------11---------|
 Ab|------------10-5-10-----------------------12-7-12------------|
 Eb|-------------------------------------------------------------|
 Bb|-------------------------------------------------------------|
Lead  T          T          T           T 
 Eb|--15-12p9p7--18-12p9p7--15--12p9p7--18--12p9p7--|
 Bb|------------------------------------------------|
 Gb|------------------------------------------------|
 Db|------------------------------------------------|
 Ab|------------------------------------------------|
 Eb|------------------------------------------------|
 Bb|------------------------------------------------|
Lead
 Eb|-18-15----------15--21-18-----22-21-18-19~~~----|
 Bb|-------17----17-----------20--------------------|
 Gb|----------18------------------------------------|
 Db|------------------------------------------------|
 Ab|------------------------------------------------|
 Eb|------------------------------------------------|
 Bb|------------------------------------------------|
Lead
 Eb|-------------------------------------------------|
 Bb|-----------------10b(Full)r-9--------------------|
 Gb|------------------------------12-11-9------------|
 Db|--------------------------------------12--9~~\---|
 Ab|-------------------------------------------------|
 Eb|-------------------------------------------------|
 Bb|-------------------------------------------------|



Enjoy!



************************************

| /   slide up
| \   slide down
| h   hammer-on
| p   pull-off
| ~   vibrato
| +   harmonic
| x   Mute note
| b   Bend
| pb  Pre-bend
| br  Bend release
| pbr Pre-bend release
| brb Bend release bend

************************************
Добавлено: 17.02.2016
Другие материалы по этой песне:

Страница создана 17.02.2016
http://primanota.ru/trivium/pull-me-from-void-chords.htm
Привет, Гость.
Предлагаем пройти революционный курс по гитаре.
Подарок от PrimaNota.Ru, забирай!