PrimaNota.ru - самый крупный в мире бесплатный архив песенных текстов, аккордов, табулатур и нот


Trivium - The Ghost Thats Haunting You - таба, видео

Регистрация Запомнить меня
Войти через:  Facebook Google Twitter Vk Yandex Mail.ru

Trivium - The Ghost Thats Haunting You - таба, видео

Печатать
Просмотров: 108
Уроки эстрадного вокала в Санкт-Петербурге
-------------------------------------------------------------------------------
                             THE GHOST THATS HAUNTING YOU - Trivium
-------------------------------------------------------------------------------
Tabbed by: JediMaster123
E-mail: mjd_beef@live.com

Tuning: Drop Db (6 String)

Love the solo on this track, had quite a bit of trouble on the speed run leading into the solo.


INTRO

Lead  
 Eb|------------------------------------------|
 Bb|------------------------------------------|
 Gb|---------12-12-----10-10------------------|
 Db|--------------12-12-----10-10-----10-10~--|
 Ab|-10-10-10--------------------13-13--------|
 Db|------------------------------------------|
Rythm
 Eb|------------------------------------------|
 Bb|------------------------------------------|
 Gb|------------------------------------------|
 Db|--5--5--5---------------------------------|
 Ab|--5--5--5---------------------------------|
 Db|--5--5--5---------------------------------|

Lead  
 Eb|------------------------------------------|
 Bb|------------------------------------------|
 Gb|---------12-12-----10-10------------------|
 Db|--------------12-12-----10-10-----10------|
 Ab|-10-10-10--------------------13-13---8~---|
 Db|------------------------------------------|
Rythm
 Eb|------------------------------------------|
 Bb|------------------------------------------|
 Gb|------------------------------------------|
 Db|--5--5--5---------------------------3-----|
 Ab|--5--5--5---------------------------3-----|
 Db|--5--5--5---------------------------3-----|

Lead  
 Eb|------------------------------------------|
 Bb|------------------------------------------|
 Gb|---------12-12-----10-10------------------|
 Db|--------------12-12-----10-10-----10-10~--|
 Ab|-10-10-10--------------------13-13--------|
 Db|------------------------------------------|
Rythm
 Eb|------------------------------------------|
 Bb|------------------------------------------|
 Gb|------------------------------------------|
 Db|--5--5--5---------------------------------|
 Ab|--5--5--5---------------------------------|
 Db|--5--5--5---------------------------------|

Lead
 Eb|--------------------------------------------------|
 Bb|--------------------------------------------------|
 Gb|--------------------------------------------------|
 Db|-----------------------------------------8\7------|
 Ab|-6--6--6--8--8--8--10--10--10--13--12-\8-----8~~--|
 Db|--------------------------------------------------|
Rythm
 Eb|--------------------------------------------------|
 Bb|--------------------------------------------------|
 Gb|--------------------------------------------------|
 Db|-1-1-----1-1-----1-1-----1-1------1------3--------|
 Ab|-1-1-----1-1-----1-1-----1-1------1------3--------|
 Db|-1-1-----1-1-----1-1-----1-1------1------3--------|


FILL
 
      -3
Lead   \ 
 Eb|------------------------------------------------------|
 Bb|------------------------------------------------------|
 Gb|------------------------------------------------------|
 Db|------------------------------------------------------|
 Ab|------------------------------------------------------|
 Db|---0--------------------------------------------------|
Rythm
 Eb|------------------------------------------------------|
 Bb|------------------------------------------------------|
 Gb|------------------------------------------------------|
 Db|------------------------------------------------------|
 Ab|------------------------------------------------------|
 Db|-0-0-0-0--0-0-0-0--0-0-0-0--0-0-0-0--0-0-0-0-0-0-0-0--|
         0
Lead   __/ 
 Eb|-------------------------------------------------------|
 Bb|-------------------------------------------------------|
 Gb|-------------------------------------------------------|
 Db|-------------------------------------------------------|
 Ab|-------------------------------------------------------|
 Db|---0---------------------------------------------------|
Rythm
 Eb|-------------------------------------------------------|
 Bb|-------------------------------------------------------|
 Gb|-------------------------------------------------------|
 Db|-------------------------------------------------------|
 Ab|-------------------------------------12\---------------|
 Db|-0-0-0-0--0-0-0-0--0-0-0-0--0-0-0-0--12\---------------|


VERSE

Rythm
 Eb|------------------------------|
 Bb|------------------------------|
 Gb|------------------------------|
 Db|------------------------------|
 Ab|------------------------------|
 Db|-0-0-0-0--0-0-0-0--0-0-0-0----|

Rythm
     |Endings 1. to 3.                  |4.
 Eb|--------------------------|---------------------------||
 Bb|--------------------------|---------------------------||
 Gb|--------------------------|---------------------------||
 Db|--------------------------|------------3-------1------||
 Ab|--------------------------|------------3-------1------||
 Db|-0-0-0-0--0-0-0-0-0-0-0-0-|-0-0-0-0----3-------1------||

Rythm
 Eb|--------------------------------------------------------||
 Bb|--------------------------------------------------------||
 Gb|--------------------------------------------------------||
 Db|--------------------------------------------------------||x3
 Ab|--------------------------------------------------------||
 Db|-0--0--0--0--0--0--0--0---0--0--0--0--8p7-0-0-10p7-0-0--||

Rythm
 Eb|-------------------------------------------------|
 Bb|-------------------------------------------------|
 Gb|-------------------------------------------------|
 Db|---------------------------------------5----3----|
 Ab|---------------------------------------5----3----|
 Db|-0--0--0--0--0--0--0--0---0--0--0--0---5----3----|


PRE CHORUS


Rythm 1
 Eb|-------------------------------------------|
 Bb|-------------------------------------------|
 Gb|--------3-3-3---------5-5-5---------7-7-7--|
 Db|-1-1-1--x-x-x--3-3-3--x-x-x--5-5-5--x-x-x--|
 Ab|-1-1-1--1-1-1--3-3-3--3-3-3--5-5-5--5-5-5--|
 Db|-1-1-1---------3-3-3---------5-5-5---------|
Ryhtm 2
 Eb|-------------------------------------------|
 Bb|-------------------------------------------|
 Gb|----------------------2-2-2---------3-3-3--|
 Db|-1-1-1--5-5-5--3-3-3---------5-5-5---------|
 Ab|-1-1-1---------3-3-3---------5-5-5---------|
 Db|-1-1-1---------3-3-3---------5-5-5---------|

Rythm 1 
 Eb|----------------------------------------|
 Bb|----------------------------------------|
 Gb|-10-8-7----8-7------7-------------------|
 Db|--------10-----10-8---10-8-7-10-8-7-----|
 Ab|------------------------------------10--|
 Db|----------------------------------------|
Rythm 2
 Eb|----------------------------------------|
 Bb|----------------------------------------|
 Gb|----------------------------------------|
 Db|-5--5--5--------------3--3--3-----------|
 Ab|-5--5--5--------------3--3--3-----------|
 Db|-5--5--5--------------3--3--3-----------|

Rythm 1
 Eb|------------------------------------------------------|
 Bb|------------------------------------------------------|
 Gb|--------3-3-3---------5-5-5---------------------------|
 Db|-1-1-1--x-x-x--3-3-3--x-x-x--0-0-0-0-0-0-0-0-3-3-3-3--|
 Ab|-1-1-1--1-1-1--3-3-3--3-3-3--0-0-0-0-0-0-0-0-3-3-3-3--|
 Db|-1-1-1---------3-3-3---------0-0-0-0-0-0-0-0-3-3-3-3--|
Ryhtm 2
 Eb|------------------------------------------------------|
 Bb|------------------------------------------------------|
 Gb|----------------------2-2-2---------------------------|
 Db|-1-1-1--5-5-5--3-3-3---------0-0-0-0-0-0-0-0-3-3-3-3--|
 Ab|-1-1-1---------3-3-3---------0-0-0-0-0-0-0-0-3-3-3-3--|
 Db|-1-1-1---------3-3-3---------0-0-0-0-0-0-0-0-3-3-3-3--|


CHORUS

Lead 1 & 2 (1 plays higher notes)
 Eb|-----------15-15-----13-13-----------------|
 Bb|----------------15-15-----13-13-----13-13~-|
 Gb|-12-12-12--12-12-----10-10-----15-15-------|
 Db|----------------12-12-----10-10-----10-10~-|
 Ab|-10-10-10----------------------13-13-------|
 Db|-------------------------------------------|
Rythm
 Eb|-------------------------------------------|
 Bb|-------------------------------------------|
 Gb|-------------------------------------------|
 Db|-5-5-5-5-5-5-5-5-5-5-5-5-5-5-5-3-----------|
 Ab|-5-5-5-5-5-5-5-5-5-5-5-5-5-5-5-3-----------|
 Db|-5-5-5-5-5-5-5-5-5-5-5-5-5-5-5-3-----------|

Lead 1 & 2 
 Eb|----------15-15-----13-13------------------|
 Bb|---------------15-15-----13-13-----13------|
 Gb|-12-12-12-12-12-----10-10-----15-15---10~--|
 Db|---------------12-12-----10-10-----10------|
 Ab|-10-10-10---------------------13-13---8~---|
 Db|-------------------------------------------|
Rythm
 Eb|-------------------------------------------|
 Bb|-------------------------------------------|
 Gb|-------------------------------------------|
 Db|-5-5-5-5-5-5-5-5-5-5-5-5-5-5-5-3-----------|
 Ab|-5-5-5-5-5-5-5-5-5-5-5-5-5-5-5-3-----------|
 Db|-5-5-5-5-5-5-5-5-5-5-5-5-5-5-5-3-----------|

Lead  
 Eb|----------15-15-----13-13-----------------|
 Bb|---------------15-15-----13-13-----13-13~-|
 Gb|-12-12-12-12-12-----10-10-----15-15-------|
 Db|---------------12-12-----10-10-----10-10~-|
 Ab|-10-10-10---------------------13-13-------|
 Db|------------------------------------------|
Rythm
 Eb|------------------------------------------|
 Bb|------------------------------------------|
 Gb|------------------------------------------|
 Db|-1-1-1-1-1-1-1-1-1-1-1-1-1-1-1-1----------|
 Ab|-1-1-1-1-1-1-1-1-1-1-1-1-1-1-1-1----------|
 Db|-1-1-1-1-1-1-1-1-1-1-1-1-1-1-1-1----------|

Lead  
 Eb|----------15-15-13-13-11-11--------------------|
 Bb|----------------------------15-15---11---11-13-|
 Gb|-10-10-10-12-12-10-10--8--8------12---12-------|
 Db|----------------------------12-12---8----8-10--|
 Ab|-8--8--8-------------------------10---10-------|
 Db|-----------------------------------------------|
Rythm
 Eb|----------------------------------------------||
 Bb|----------------------------------------------||
 Gb|----------------------------------------------||
 Db|-3-3-3-3-3-3-3-3-3-3-3-3-------1------3-------||x2
 Ab|-3-3-3-3-3-3-3-3-3-3-3-3-------1------3-------||
 Db|-3-3-3-3-3-3-3-3-3-3-3-3-------1------3-------||


BRIDGE


Rythm 1 
 Eb|-------------------------------------------------------------------------------------|
 Bb|-------------------------------------------------------------------------------------|
 Gb|-------------------------------------------------------------------------------------|x2
 Db|-0-------12-10-12-------10-12-13-----------------------------------------------------|
 Ab|-0--0-0--12-10-12--0-0--10-12-13--9b(1/2)-9-10-/13~--13-12-10-9b(1/2)--------------0-|
 Db|-0--0-0--12-10-12--0-0--10-12-13-------------------------------------12~-0-4b(1/2)-0-|
Rythm 2
 Eb|-------------------------------------------------------------------------------------|
 Bb|-------------------------------------------------------------------------------------|
 Gb|-------------------------------------------------------------------------------------|x2
 Db|-0-------12-10-12-------10-12-13----------------/12~--12-10-8------------------------|
 Ab|-0--0-0--12-10-12--0-0--10-12-13-12b(1/2)-12-13--------------12b(1/2)-9~-----------0-|
 Db|-0--0-0--12-10-12--0-0--10-12-13-----------------------------------------0-4b(1/2)-0-|

Lead
 Eb|----------------------------------------10-11-13--------11-13-15--------13-15-16-15h17\-|
 Bb|--------------------------------10-11-13--------11-13-15--------13-15-16----------------|
 Gb|------------------7-8-10-8-10-12--------------------------------------------------------|
 Db|------5-7-8-7-8-10----------------------------------------------------------------------|
 Ab|-5-6-8----------------------------------------------------------------------------------|
 Db|----------------------------------------------------------------------------------------|
Rythm
 Eb|------------------------------------------------------------------------|
 Bb|------------------------------------------------------------------------|
 Gb|------------------------------------------------------------------------|
 Db|--1----1----1----1----1----1----1----1----3----3----3----3----3---------|
 Ab|--1----1----1----1----1----1----1----1----3----3----3----3----3---------|
 Db|--1----1----1----1----1----1----1----1----3----3----3----3----3---------|


SOLO


Lead
 Eb|-----------------------------------------------|
 Bb|-----------------------------------------------|
 Gb|---------------------------------3-5/7~~-------|
 Db|---------3--3h5/7\---5-5-5~~---5---------------|
 Ab|--5~---5---------------------------------------|
 Db|-----------------------------------------------|
Rythm
 Eb|-----------------------------------------------|
 Bb|-----------------------------------------------|
 Gb|-------------------------3--------5--3---------|
 Db|-5-----------------------3--------5--3--3------|
 Ab|-5--5--5--5--5--5--5--5-----------------3------|
 Db|-5--5--5--5--5--5--5--5-----5--5-----------5---|

Lead
 Eb|-10~~----------------------------------------|
 Bb|---------------------------------------------|
 Gb|--7+~-----------------7h8h10-\8--7-7---------|
 Db|-------------------10-----------------10--8--|
 Ab|---------------------------------------------|
 Db|---------------------------------------------|
Rythm
 Eb|---------------------------------------------|
 Bb|---------------------------------------------|
 Gb|-3--0-----------------------------5--3-------|
 Db|-3--0--------------------3--------5--3--3----|
 Ab|-------------------------3--------------3----|
 Db|-------5--5--5--5--5--5-----5--5-----------3-|

Lead
 Eb|---------------------------------------------------|
 Bb|---------------------------------------------------|
 Gb|---------------------------------------------------|
 Db|-7b(1/2)------7b(1/2)r-----------------------------|
 Ab|-----------------------------10+~~b(Full)r~~~------|
 Db|---------------------------------------------------|
Rythm
 Eb|---------------------------------------------------|
 Bb|---------------------------------------------------|
 Gb|-3--------3--------2----------3--------2-----3-----|
 Db|-1--------1--------1----------1--------1-----1-----|
 Ab|---------------------------------------------------|
 Db|----1--1-----1--1-----1----1-----1--1-----1-----1--|

Lead 
 Eb|-------------3---3-6-3----------------5---5-8-5-----|
 Bb|-------3---3---3-------3----------------------------|
 Gb|-----3---3--------------------5-8-5-8---8-------8---|
 Db|---5------------------------7-----------------------|
 Ab|-6------------------------8-------------------------|
 Db|----------------------------------------------------|
Rythm
 Eb|----------------------------------------------------|
 Bb|----------------------------------------------------|
 Gb|-5--------5--------3-----------5--------3-----5-----|
 Db|-3--------3--------3-----------3--------3-----3-----|
 Ab|----------------------------------------------------|
 Db|----3--3-----3--3-----3-----3-----3--3-----3-----3--|

Lead
 Eb|------------------------------------------------|
 Bb|-15b(1/2)r-13~---15b(1/2)r---13-----------------|
 Gb|----------------------------------15-14~~-15~~--|
 Db|------------------------------------------------|
 Ab|------------------------------------------------|
 Db|------------------------------------------------|
Rythm
 Eb|------------------------------------------------|
 Bb|------------------------------------------------|
 Gb|-------------------------3--------5--3----------|
 Db|-5-----------------------3--------5--3--3-------|
 Ab|-5--5--5--5--5--5--5--5-----------------3-------|
 Db|-5--5--5--5--5--5--5--5-----5--5-----------5----|

Lead
 Eb|---------------------------------------------10-11-8-11-13-10-13-15-11-15-17-13--|
 Bb|--11+p10-----13p10------11+p10-----13p10-----------------------------------------|
 Gb|--------12-10-----12-10-------12-10-----12-10------------------------------------|
 Db|---------------------------------------------------------------------------------|
 Ab|---------------------------------------------------------------------------------|
 Db|---------------------------------------------------------------------------------|
Rythm
 Eb|---------------------------------------------------------------------------------|
 Bb|---------------------------------------------------------------------------------|
 Gb|-3--0--------------------------------------------------5--3----------------------|
 Db|-3--0-----------------------------------------3--------5--3--3-------------------|
 Ab|----------------------------------------------3--------------3-------------------|
 Db|-------5--5--5--5--5--5-----------------------5--5-----------3-------------------|

Lead
 Eb|-17b(1/2)--17b(1/2)r----------15--17p(15)~~---------|
 Bb|----------------------------------------------------|
 Gb|----------------------------------------------------|
 Db|----------------------------------------------------|
 Ab|----------------------------------------------------|
 Db|----------------------------------------------------|
Rythm
 Eb|----------------------------------------------------|
 Bb|----------------------------------------------------|
 Gb|-3--------3--------2----------3--------2-----3------|
 Db|-1--------1--------1----------1--------1-----1------|
 Ab|----------------------------------------------------|
 Db|----1--1-----1--1-----1----1-----1--1-----1-----1---|

Lead 
 Eb|-20b(Full)--20b(Full)r-18-17-18b(Full)-18-17-15-----------------------------|
 Bb|-----------------------------------------------18-16-15---------------------|
 Gb|-------------------------------------------------------17-15----------------|
 Db|------------------------------------------------------------19-17-15-17~~~--|
 Ab|----------------------------------------------------------------------------|
 Db|----------------------------------------------------------------------------|
Rythm
 Eb|----------------------------------------------------------------------------|
 Bb|----------------------------------------------------------------------------|
 Gb|-5--------5--------3-----------5--------3-----5-----------------------------|
 Db|-3--------3--------3-----------3--------3-----3-----------------------------|
 Ab|----------------------------------------------------------------------------|
 Db|----3--3-----3--3-----3-----3-----3--3-----3-----3--------------------------|


Enjoy & Rate!


************************************

| /   slide up
| \   slide down
| h   hammer-on
| p   pull-off
| ~   vibrato
| +   harmonic
| x   Mute note
| b   Bend
| pb  Pre-bend
| br  Bend release
| pbr Pre-bend release
| brb Bend release bend

************************************
Добавлено: 17.02.2016
Другие материалы по этой песне:

Страница создана 17.02.2016
http://primanota.ru/trivium/ghost-thats-haunting-you-chords.htm
Привет, Гость.
Предлагаем пройти революционный курс по гитаре.
Подарок от PrimaNota.Ru, забирай!