PrimaNota.ru - самый крупный в мире бесплатный архив песенных текстов, аккордов, табулатур и нот


Trivium - The Thing Thats Killing Me - таба, видео

Регистрация Запомнить меня
Войти через:  Facebook Google Twitter Vk Yandex Mail.ru

Trivium - The Thing Thats Killing Me - таба, видео

Печатать
Просмотров: 65
-------------------------------------------------------------------------------
                             THE THING THATS KILLING ME - Trivium
-------------------------------------------------------------------------------
Tabbed by: JediMaster123
E-mail: mjd_beef@live.com

Tuning: Drop Db (6 String)

INTRO/MAIN RIFF

(I think Matt forgot he was in drop tuning when he wrote riff this lol)

Rythm
 Eb|-------------------------------------------------------|
 Bb|-3--3--------------------------------------------------|
 Gb|-2--2--------------------------------------------------|
 Db|-0--0-----------------------0--0----------3--3---------|
 Ab|--------0--0--0--0--0--0----x--x---0--0---x--x---0--0--|
 Db|--------0--0--0--0--0--0----3--3---0--0---6--6---0--0--|

Rythm
 Eb|-------------------------------------------------------|
 Bb|-3--3--------------------------------------------------|
 Gb|-2--2--------------------------------------------------|
 Db|-0--0--------------------------------------------------|
 Ab|--------0--0--0--0--0--0----0--0--0--0--0--0--0--0-----|
 Db|--------0--0--0--0--0--0----0--0--0--0--0--0--0--0-----|


Rythm
 Eb|------------------------------------------------------|
 Bb|-3--3-------------------------------------------------|
 Gb|-2--2-------------------------------------------------|
 Db|-0--0-----------------------0--0----------3--3--------|
 Ab|--------0--0--0--0--0--0----x--x---0--0---x--x---0--0-|
 Db|--------0--0--0--0--0--0----3--3---0--0---6--6---0--0-|
 Lead 1    + Natural
 Eb|-----+24+--(Slow Dive)--------------------------------|
 Bb|------------------------------------------------------|
 Gb|------------------------------------------------------|
 Db|------------------------------------------------------|
 Ab|------------------------------------------------------|
 Db|------------------------------------------------------|
 Lead 2   + Natural
 Eb|------------------------------------------------------|
 Bb|-----+16+---(Slow Dive)-------------------------------|
 Gb|------------------------------------------------------|
 Db|------------------------------------------------------|
 Ab|------------------------------------------------------|
 Db|------------------------------------------------------|

Rythm
 Eb|------------------------------------------------------|
 Bb|-3--3-------------------------------------------------|
 Gb|-2--2-------------------------------------------------|
 Db|-0--0-------------------------------------------------|
 Ab|--------0--0--0--0--0--0----0--0--0--0--0--0--0--0----|
 Db|--------0--0--0--0--0--0----0--0--0--0--0--0--0--0----|
 Lead 1
 Eb|----(+24+)--------------------------------------------|
 Bb|------------------------------------------------------|
 Gb|------------------------------------------------------|
 Db|------------------------------------------------------|
 Ab|------------------------------------------------------|
 Db|------------------------------------------------------|
 Lead 2
 Eb|------------------------------------------------------|
 Bb|----(+16)---------------------------------------------|
 Gb|------------------------------------------------------|
 Db|------------------------------------------------------|
 Ab|------------------------------------------------------|
 Db|------------------------------------------------------|

Rythm
 Eb|------------------------------------------------------|
 Bb|-3--3-------------------------------------------------|
 Gb|-2--2-------------------------------------------------|
 Db|-0--0-----------------------0--0----------3--3--------|
 Ab|--------0--0--0--0--0--0----x--x---0--0---x--x---0--0-|
 Db|--------0--0--0--0--0--0----3--3---0--0---6--6---0--0-|
 Lead 1
 Eb|------------------------------------------------------|
 Bb|-15-------------13------------------------------------|
 Gb|----14-14-14~------12-12~------------12h14------------|
 Db|---------------------------15-15~---------------------|
 Ab|------------------------------------------------------|
 Db|------------------------------------------------------|
 Lead 2
 Eb|------------------------------------------------------|
 Bb|------------------------------------------------------|
 Gb|-15------------14-------------------------------------|
 Db|----15-15-15~-----14-14~---12-12~----14h15------------|
 Ab|------------------------------------------------------|
 Db|------------------------------------------------------|

Rythm
 Eb|------------------------------------------------------|
 Bb|-3--3-------------------------------------------------|
 Gb|-2--2-------------------------------------------------|
 Db|-0--0-------------------------------------------------|
 Ab|--------0--0--0--0--0--0----0--0--0--0--0--0--0--0----|
 Db|--------0--0--0--0--0--0----0--0--0--0--0--0--0--0----|
 Lead 1
 Eb|------------------------------------------------------|
 Bb|-------------------------------------------------13---|
 Gb|--14h15--14~~------------------------------12-14------|
 Db|----------------------------------12-14-15------------|
 Ab|------------------------------------------------------|
 Db|------------------------------------------------------|
 Lead 2
 Eb|------------------------------------------------------|
 Bb|------------------------------------------------------|
 Gb|-------------------------------------------------14---|
 Db|--15h17--15~~------------------------------14-15------|
 Ab|----------------------------------13-15-17------------|
 Db|------------------------------------------------------|

Rythm
 Eb|------------------------------------------------------|
 Bb|-3--3-------------------------------------------------|
 Gb|-2--2-------------------------------------------------|
 Db|-0--0-----------------------0--0----------3--3--------|
 Ab|--------0--0--0--0--0--0----x--x---0--0---x--x---0--0-|
 Db|--------0--0--0--0--0--0----3--3---0--0---6--6---0--0-|
 Lead 1
 Eb|------------------------------------------------------|
 Bb|-15---------------------------------------------------|
 Gb|----14-14-14~---12-12-12~-----------------------------|
 Db|-----------------------------15-14-14~--15-12~~-------|
 Ab|------------------------------------------------------|
 Db|------------------------------------------------------|
 Lead 2
 Eb|------------------------------------------------------|
 Bb|------------------------------------------------------|
 Gb|-15---------------------------------------------------|
 Db|----15-15-15~---14-14-14~---------------12------------|
 Ab|----------------------------17-15-15~------12~~-------|
 Db|------------------------------------------------------|

Rythm
 Eb|------------------------------------------------------|
 Bb|-3--3-------------------------------------------------|
 Gb|-2--2-------------------------------------------------|
 Db|-0--0-------------------------------------------------|
 Ab|--------0--0--0--0--0--0----0--0--0--0--0--0--0--0----|
 Db|--------0--0--0--0--0--0----0--0--0--0--0--0--0--0----|
 Lead 1                      + Natural
 Eb|------------------------+7+---(Dive)------------------|
 Bb|------------------------------------------------------|
 Gb|------------------------------------------------------|
 Db|-(12)~~~~---------------------------------------------|
 Ab|------------------------------------------------------|
 Db|------------------------------------------------------|
 Lead 2                      +  Natural
 Eb|------------------------------------------------------|
 Bb|------------------------------------------------------|
 Gb|------------------------+16+--(Dive)------------------|
 Db|------------------------------------------------------|
 Ab|-(12)~~~----------------------------------------------|
 Db|------------------------------------------------------|


VERSE


Rythm
 Eb|---------------------|
 Bb|---------------------|
 Gb|-7----6----5----4----|
 Db|-x----x----x----x----|x2
 Ab|-5----4----3----2----|
 Db|---------------------|
Rythm
 Eb|-----------------------------------------------------------|
 Bb|-----------------------------------------------------------|
 Gb|-----------------------------------------------------------|
 Db|-----------------------------------------------------------|
 Ab|-8-8-8-8-8-8-8-8--10-10-10-10-10-10-10-10--12-12-12-12-12--|
 Db|-8-8-8-8-8-8-8-8--10-10-10-10-10-10-10-10--11-11-11-11-11--|
 

CHORUS


Rythm
 Eb|---------------------------------------------------|
 Bb|--3--3--3--3--3--3--3--3--3--3--3--3--3--3--3--3---|
 Gb|--2--2--2--2--2--2--2--2--2--2--2--2--2--2--2--2---|
 Db|--0--0--0--0--0--0--0--0--0--0--0--0--0--0--0--0---|
 Ab|---------------------------------------------------|
 Db|---------------------------------------------------|
Lead 1
 Eb|---------------------------------------------------|
 Bb|---------------------------------------------------|
 Gb|--------14---12~-----14------14----12~----14~------|
 Db|--12----------------------12-----------------------|
 Ab|---------------------------------------------------|
 Db|---------------------------------------------------|

Rythm
 Eb|---------------------------------------------------|
 Bb|---------------------------------------------------|
 Gb|--3--3--3--3--3--3--3--3--3--3--3--3--3--3--3--3---|
 Db|--3--3--3--3--3--3--3--3--3--3--3--3--3--3--3--3---|
 Ab|--1--1--1--1--1--1--1--1--1--1--1--1--1--1--1--1---|
 Db|---------------------------------------------------|
Lead 1
 Eb|---------------------------------------------------|
 Bb|---------------------------------------------------|
 Gb|--------14-----------12--------12---14~---12~------|
 Db|--------------15~----------------------------------|
 Ab|--13----------------------13-----------------------|
 Db|---------------------------------------------------|

Rythm
 Eb|---------------------------------------------------|
 Bb|---------------------------------------------------|
 Gb|---------------------------------------------------|
 Db|--3--3--3--3--3--3--3--3--3--3--3--3--3--3--3--3---|
 Ab|--3--3--3--3--3--3--3--3--3--3--3--3--3--3--3--3---|
 Db|--3--3--3--3--3--3--3--3--3--3--3--3--3--3--3--3---|
Lead 1
 Eb|---------------------------------------------------|
 Bb|---------------------------------------------------|
 Gb|-------14---12~----14----------14---12---14~-------|
 Db|--15--------------------15-------------------------|
 Ab|---------------------------------------------------|
 Db|---------------------------------------------------|

Rythm
 Eb|---------------------------------------------------|
 Bb|---------------------------------------------------|
 Gb|---------------------------------------------------|
 Db|---------------------------------------------------|
 Ab|--10-10-10-10-10-10-10-10-12-12-12-12-12-12-12-12--|
 Db|--10-10-10-10-10-10-10-10-11-11-11-11-11-11-11-11--|
Lead 1
 Eb|---------------------------------------------------|
 Bb|--13~----------------------------------------------|
 Gb|-----------15----14~----12~~~----------------------|
 Db|---------------------------------------------------|
 Ab|---------------------------------------------------|
 Db|---------------------------------------------------|

Rythm
 Eb|---------------------------------------------------|
 Bb|--3--3--3--3--3--3--3--3--3--3--3--3--3--3--3--3---|
 Gb|--2--2--2--2--2--2--2--2--2--2--2--2--2--2--2--2---|
 Db|--0--0--0--0--0--0--0--0--0--0--0--0--0--0--0--0---|
 Ab|---------------------------------------------------|
 Db|---------------------------------------------------|
Lead 1
 Eb|---------------------------------------------------|
 Bb|---------------------------------------------------|
 Gb|--------14---12~-----14------14----12~----14~------|
 Db|--12----------------------12-----------------------|
 Ab|---------------------------------------------------|
 Db|---------------------------------------------------|

Rythm
 Eb|---------------------------------------------------|
 Bb|---------------------------------------------------|
 Gb|--3--3--3--3--3--3--3--3--3--3--3--3--3--3--3--3---|
 Db|--3--3--3--3--3--3--3--3--3--3--3--3--3--3--3--3---|
 Ab|--1--1--1--1--1--1--1--1--1--1--1--1--1--1--1--1---|
 Db|---------------------------------------------------|
Lead 1
 Eb|---------------------------------------------------|
 Bb|---------------------------------------------------|
 Gb|--------14-----------12--------12---14~---12~------|
 Db|--------------15~----------------------------------|
 Ab|--13----------------------13-----------------------|
 Db|---------------------------------------------------|

Rythm
 Eb|---------------------------------------------------|
 Bb|---------------------------------------------------|
 Gb|---------------------------------------------------|
 Db|--3--3--3--3--3--3--3--3--3--3--3--3--3--3--3--3---|
 Ab|--3--3--3--3--3--3--3--3--3--3--3--3--3--3--3--3---|
 Db|--3--3--3--3--3--3--3--3--3--3--3--3--3--3--3--3---|
Lead 1
 Eb|---------------------------------------------------|
 Bb|----------------------------------------13~~-------|
 Gb|-------14---12~----14----------14---12-------------|
 Db|--15--------------------15-------------------------|
 Ab|---------------------------------------------------|
 Db|---------------------------------------------------|

Rythm
 Eb|---------------------------------------------------|
 Bb|---------------------------------------------------|
 Gb|----------------------------9p6-6------------------|
 Db|-------------------------------8-8p5h8p5-5---------|
 Ab|--10-10-10-10-10-10-10-10--12-----------7-7p4------|
 Db|--10-10-10-10-10-10-10-10--11----------------------|
Lead 1
 Eb|---------------------------------------------------|
 Bb|--13~----------------------------------------------|
 Gb|---------------------------------------------------|
 Db|---------------------------------------------------|
 Ab|---------------------------------------------------|
 Db|---------------------------------------------------|


BRIDGE

Rythm
 Eb|-------------------------------------------------------|
 Bb|-3--3--------------------------------------------------|
 Gb|-2--2--------------------------------------------------|
 Db|-0--0--------------------------------------------------|
 Ab|--------0--0--0--0--0--0----0--0--0--0--0--0--0--0-----|
 Db|--------0--0--0--0--0--0----0--0--0--0--0--0--0--0-----|

Rythm
 Eb|-------------------------------------------------------|
 Bb|-3--3--------------------------------------------------|
 Gb|-2--2--------------------------------------------------|
 Db|-0--0-----------------------0--0----------3--3---------|
 Ab|--------0--0--0--0--0--0----x--x---0--0---x--x---0--0--|
 Db|--------0--0--0--0--0--0----3--3---0--0---6--6---0--0--|

Rythm
 Eb|-------------------------------------------------------|
 Bb|-3--3--------------------------------------------------|
 Gb|-2--2--------------------------------------------------|
 Db|-0--0--------------------------------------------------|
 Ab|--------0--0--0--0--0--0----0--0--0--0--0--0--0--0-----|
 Db|--------0--0--0--0--0--0----0--0--0--0--0--0--0--0-----|

Rythm
 Eb|-------------------------------------------------------|
 Bb|-3--3--------------------------------------------------|
 Gb|-2--2--------------------------------------------------|
 Db|-0--0-----------------------0-------------3------------|
 Ab|--------0--0--0--0--0--0----x-------------x------------|
 Db|--------0--0--0--0--0--0----3-------------6------------|


SOLO



Rythm
 Eb|-------------------------------------------------------|
 Bb|-3--3--------------------------------------------------|
 Gb|-2--2--------------------------------------------------|
 Db|-0--0-----------------------0--0----------3--3---------|
 Ab|--------0--0--0--0--0--0----x--x---0--0---x--x---0--0--|
 Db|--------0--0--0--0--0--0----3--3---0--0---6--6---0--0--|
Lead 
 Eb|--------------------15-18--17h18p17p15--15-------------|
 Bb|-----------------17-------------------18--18-17-15-17--|
 Gb|-------10-14-/18---------------------------------------|
 Db|----12-------------------------------------------------|
 Ab|-12----------------------------------------------------|
 Db|-------------------------------------------------------|

Rythm
 Eb|-------------------------------------------------------|
 Bb|-3--3--------------------------------------------------|
 Gb|-2--2--------------------------------------------------|
 Db|-0--0--------------------------------------------------|
 Ab|--------0--0--0--0--0--0----0--0--0--0--0--0--0--0-----|
 Db|--------0--0--0--0--0--0----0--0--0--0--0--0--0--0-----|
Lead 
 Eb|-------------------------------------------------------|
 Bb|--18--17-15----------15--17~---------------------------|
 Gb|------------18~---18-----------18~----15~----14~-------|
 Db|-------------------------------------------------------|
 Ab|-------------------------------------------------------|
 Db|-------------------------------------------------------|

Rythm
 Eb|--------------------------------------------------------|
 Bb|-3--3---------------------------------------------------|
 Gb|-2--2---------------------------------------------------|
 Db|-0--0-----------------------0--0----------3--3----------|
 Ab|--------0--0--0--0--0--0----x--x---0--0---x--x---0--0---|
 Db|--------0--0--0--0--0--0----3--3---0--0---6--6---0--0---|
Lead 
 Eb|---------------------------------------------------------|
 Bb|-10----------10b(Full)-----------10--------------10------|
 Gb|-12b(Full)---------------10-12-13--13-12-10-12-13--13-12-|
 Db|---------------------------------------------------------|
 Ab|---------------------------------------------------------|
 Db|---------------------------------------------------------|

Rythm
 Eb|-------------------------------------------------------------------------------|
 Bb|-3--3--------------------------------------------------------------------------|
 Gb|-2--2--------------------------------------------------------------------------|
 Db|-0--0--------------------------------------------------------------------------|
 Ab|--------0--0--0--0--0--0-----0---0---0---0---0---0---0---0---------------------|
 Db|--------0--0--0--0--0--0-----0---0---0---0---0---0---0---0---------------------|
Lead                        T    T       T     T        T    T        T     T     
 Eb|----------------------------------------------------------------15h18p15h18p15-|
 Bb|--------------------------------------------------14h17p14h17p14---------------|
 Gb|------------------------------------12h15p12h15p12-----------------------------|
 Db|-12~-15~-14~-12~------11h14p11h14p11-------------------------------------------|
 Ab|-------------------------------------------------------------------------------|
 Db|-------------------------------------------------------------------------------|

Rythm
 Eb|-------------------------------------------------------|
 Bb|-3-------3---------------------------------------------|
 Gb|-2-------2---------------------------------------------|
 Db|-0-------0---------------------------------------------|
 Ab|----------------0-----0-----0-----0-----0-----0--------|
 Db|----------------0-----0-----0-----0-----0-----0--------|
Lead 
      T    T     T     T      T     T     T     T    T
 Eb|-22-18-22-18-22-18-22-18-22-18-22-17-22-17-22-17-22-15-|
 Bb|-------------------------------------------------------|
 Gb|-------------------------------------------------------|
 Db|-------------------------------------------------------|
 Ab|-------------------------------------------------------|
 Db|-------------------------------------------------------|

Rythm
 Eb|-------------------------------------------------------------------------|
 Bb|-------------------------------------------------------------------------|
 Gb|-------------------------------------------------------------------------|
 Db|--0------0-----------------------3-----3---------------------------------|
 Ab|--x------x------0-------0--------x-----x-------0-------0-----------------|
 Db|--3------3------0-------0--------6-----6-------0-------0-----------------|
Lead 
     T     T     T     T     T     T     T     T     T     T     T     T
 Eb|-22-15-22-15-22-15-22-15-22-13-22-13-22-13-22-13-22-13-22-12-22-12-22-12-|
 Bb|-------------------------------------------------------------------------|
 Gb|-------------------------------------------------------------------------|
 Db|-------------------------------------------------------------------------|
 Ab|-------------------------------------------------------------------------|
 Db|-------------------------------------------------------------------------|

Rythm
 Eb|-------------------------------------------------------|
 Bb|-3--3--------------------------------------------------|
 Gb|-2--2--------------------------------------------------|
 Db|-0--0--------------------------------------------------|
 Ab|--------0--0--0--0--0--0----0--0--0--0--0--0--0--0-----|
 Db|--------0--0--0--0--0--0----0--0--0--0--0--0--0--0-----|
Lead 
 Eb|-------------------------------------------------------|
 Bb|-------------17-18-/20------18---17~----18~~-----------|
 Gb|-/19~-----19-------------------------------------------|
 Db|-------19----------------------------------------------|
 Ab|-------------------------------------------------------|
 Db|-------------------------------------------------------|

Rythm
 Eb|-------------------------------------------------------|
 Bb|-3--3--------------------------------------------------|
 Gb|-2--2--------------------------------------------------|
 Db|-0--0-----------------------0--0----------3--3---------|
 Ab|--------0--0--0--0--0--0----x--x---0--0---x--x---0--0--|
 Db|--------0--0--0--0--0--0----3--3---0--0---6--6---0--0--|
Lead 
      T           T          T            T         T           T          T          T
 Eb|-17-13-10-13-17-13-10-13-18-15-12-15-18-15-12-15-----------------------15-12-9-12-15-12-9-12-|
 Bb|------------------------------------------------17-14-11-14-17-14-11-14----------------------|
 Gb|---------------------------------------------------------------------------------------------|
 Db|---------------------------------------------------------------------------------------------|
 Ab|---------------------------------------------------------------------------------------------|
 Db|---------------------------------------------------------------------------------------------|

Rythm
 Eb|-------------------------------------------------------|
 Bb|-3--3--------------------------------------------------|
 Gb|-2--2--------------------------------------------------|
 Db|-0--0--------------------------------------------------|
 Ab|--------0--0--0--0--0--0----0--0--0--0--0--0--0--0-----|
 Db|--------0--0--0--0--0--0----0--0--0--0--0--0--0--0-----|
Lead 
 Eb|-17p13--17p13--12----15----12----15----18----21--------|
 Bb|------15-----15--14----17----14----17----20----23------|
 Gb|-------------------15----18----15----18----21----24----|
 Db|-------------------------------------------------------|
 Ab|-------------------------------------------------------|
 Db|-------------------------------------------------------|

Rythm
 Eb|------------------------------------|
 Bb|------------------------------------|
 Gb|-7---------6----------5--------4----|
 Db|-x---------x----------x--------x----|x2
 Ab|-5---------4----------3--------2----|
 Db|------------------------------------|
Lead 
 Eb|------------------------------------|
 Bb|-17b(1/2)--17~--------17~-17h18-----|
 Gb|-------------------------------19~--|
 Db|------------------------------------|x2
 Ab|------------------------------------|
 Db|------------------------------------|

Rythm
 Eb|------------------------------------------------------------------|
 Bb|------------------------------------------------------------------|
 Gb|------------------------------------------------------------------|
 Db|--8--8--8--8---8--8--8--8----8--8--8--8---8--8--8--8--------------|
 Ab|--8--8--8--8---8--8--8--8----8--8--8--8---8--8--8--8--------------|
 Db|--8--8--8--8---8--8--8--8----8--8--8--8---8--8--8--8--------------|
Lead 
 Eb|-18-17-15---------------------------------------------------------|
 Bb|---------18-17-15-------------------------------------------------|
 Gb|-----------------17-15-14--------15-14-12-------------------------|
 Db|-------------------------17-15-14--------15-14-12-----------------|
 Ab|-------------------------------------------------15-13-12---------|
 Db|---------------------------------------------------------17-14-12-|

Rythm
 Eb|------------------------------------------------------|
 Bb|------------------------------------------------------|
 Gb|------------------------------------------------------|
 Db|--10-10-10-10--10-10-10-10--10-10-10-10--10-10-10-10--|
 Ab|--10-10-10-10--10-10-10-10--10-10-10-10--10-10-10-10--|
 Db|--10-10-10-10--10-10-10-10--10-10-10-10--10-10-10-10--|
Lead 
 Eb|-------------------5----------------------------------|
 Bb|---------------5-6----------------------5-8-----------|
 Gb|------------7----------------------5-7----------------|
 Db|-------5-7--------------------2-5---------------------|
 Ab|--5-7--------------------3-5--------------------------|
 Db|------------------------------------------------------|

Rythm
 Eb|-------------------------------------------------------------------|
 Bb|-------------------------------------------------------------------|
 Gb|-------------------------------------------------------------------|
 Db|--8--8--8--8---8--8--8--8----8--8--8--8---8--8--8--8---------------|
 Ab|--8--8--8--8---8--8--8--8----8--8--8--8---8--8--8--8---------------|
 Db|--8--8--8--8---8--8--8--8----8--8--8--8---8--8--8--8---------------|
Lead 
 Eb|-------------------------------------------------------------------|
 Bb|-------------------------------------------------------------------|
 Gb|----------------------------------------12-14-15----------14-15-17-|
 Db|--------5-7-8---------7-8-10--/12-14-15----------14-15-17----------|
 Ab|-5-7-8---------7-8-10----------------------------------------------|
 Db|-------------------------------------------------------------------|

Rythm
 Eb|----------------------------------------------------------|
 Bb|----------------------------------------------------------|
 Gb|----------------------------------------------------------|
 Db|--10--10--10--10--10--10--10--10--------------------------|
 Ab|--10--10--10--10--10--10--10--10--12--12--12--12----------|
 Db|--10--10--10--10--10--10--10--10--11--11--11--11----------|
Lead 
 Eb|----------15-17-18----------17-18-20-20b(Full)--(22)~~----|
 Bb|-15-17-18----------17-18-20-------------------------------|
 Gb|----------------------------------------------------------|
 Db|----------------------------------------------------------|
 Ab|----------------------------------------------------------|
 Db|----------------------------------------------------------|


Everything else repeats... Enjoy!





************************************

| /   slide up
| \   slide down
| h   hammer-on
| p   pull-off
| ~   vibrato
| +   harmonic
| x   Mute note
| b   Bend
| pb  Pre-bend
| br  Bend release
| pbr Pre-bend release
| brb Bend release bend

************************************
Добавлено: 17.02.2016
Другие материалы по этой песне:

Страница создана 17.02.2016
http://primanota.ru/trivium/thing-thats-killing-me-chords.htm
Привет, Гость.
Предлагаем пройти революционный курс по гитаре.
Подарок от PrimaNota.Ru, забирай!