PrimaNota.ru - самый крупный в мире бесплатный архив песенных текстов, аккордов, табулатур и нот


Trivium - Strife - таба, видео

Регистрация Запомнить меня
Войти через:  Facebook Google Twitter Vk Yandex Mail.ru

Trivium - Strife - таба, видео

Печатать
Просмотров: 626
Trivium - Strife
Tuning - Drop Db (Eb Bb Gb Db Ab Db)  / Drop C# (D# A# F# C# G# C#)
Tabbed by Lorcan Ward

Guitar Cover:
http://www.youtube.com/watch?v=DpclT7sgGoE

|-----------------------------------------------------------------------------|
|-----------------------------------------------------------------------------|
|------------------------------5-----------------------------------5----------|
|-----7--5--7--5-----7--5--7-------8~~-----7--5--7--5-----7--5--7-----8--7--5-|
|--5--------------8---------------------5--------------8----------------------|
|-----------------------------------------------------------------------------|

Play 4 times

Guitar solo starts at 3:23

Corey:
|--10p6-------------------------------------------------------------------------------|
|----------------------10p5-----------------------------------------------13p10-------|
|-------10-7---7-10-7-----------------------7p5-----10p7------12p10------------12-10--|
|------------8---------------10-7---7-10--------7-5------10-8-------12-10-------------|
|---------------------------------8---------------------------------------------------|
|-------------------------------------------------------------------------------------|

|-12p10----10-13-10-12-10----10-12-10----10-13-10-12-10----10-12-10----10-13-10-12-10-|
|-------13----------------13----------13----------------13----------13----------------|
|-------------------------------------------------------------------------------------|
|-------------------------------------------------------------------------------------|
|-------------------------------------------------------------------------------------|
|-------------------------------------------------------------------------------------|

|----------------------------------------------------------------12-12-13-13-12-12-------|
|-13b15--13b~~~--------------------------------------15-15-10-10-------------------13-13-|
|----------------------------10-10-------14-14-10-10-------------------------------------|
|----------------------12-12-------12-12-------------------------------------------------|
|----------------13-13-------------------------------------------------------------------|
|----------------------------------------------------------------------------------------|

|------------------------------------------15h17-15~~---13h15-13~~-----|
|--15-15-----------------------/18~~~~~--------------------------------|
|--------14-14-12-12-14------------------------------------------------|
|----------------------------------------------------------------------|
|----------------------------------------------------------------------|
|----------------------------------------------------------------------|

|--12-13-15--13--12---------------|
|--------------------13-----------|
|---------------------------------|
|---------------------------------|
|---------------------------------|
|---------------------------------|


Heafy:
|----------------------------------------------------------------------|
|--13b15--13b15~~~------15---17---17b18~~~-----17~~-----15----13~~~~~--|
|----------------------------------------------------------------------|
|----------------------------------------------------------------------|
|----------------------------------------------------------------------|
|----------------------------------------------------------------------|

|----------------------------------------------------------------------|
|--15~~~------15h17p15---13~~------13h15p13---10~~~---10h13p10---------|
|---------------------------------------------------------------12~~---|
|----------------------------------------------------------------------|
|----------------------------------------------------------------------|
|----------------------------------------------------------------------|

|----------------------------------------------------------------------|
|--------------13b15--13b15~~~----15---17---17b18~~~---17~~---15---13~-|
|--------10h12---------------------------------------------------------|
|--10h12---------------------------------------------------------------|
|----------------------------------------------------------------------|
|----------------------------------------------------------------------|

|----------------------------------10-13-15----------------------------------|
|-10-10-13-13-15-15-15-15-10-13-15----------10-10-13-13-15-15-15-15-10-13-15-|
|----------------------------------------------------------------------------|
|----------------------------------------------------------------------------|
|----------------------------------------------------------------------------|
|----------------------------------------------------------------------------|

|--10-13-15--17---15---17---20---17---20----20b22~~~~~~~~-------\--\----|
|------------|       Tremelo Pick        |------------------------------|
|-----------------------------------------------------------------------|
|-----------------------------------------------------------------------|
|-----------------------------------------------------------------------|
|-----------------------------------------------------------------------|



Guitar Solo in E standard tuning

|-----------------------------------------------------------------------------|
|-----------------------------------------------------------------------------|
|------------------------------4-----------------------------------4----------|
|-----6--4--6--4-----6--4--6-------7~~-----6--4--6--4-----6--4--6-----7--6--4-|
|--4--------------7---------------------4--------------7----------------------|
|-----------------------------------------------------------------------------|

Play 4 times

Guitar solo starts at 3:23

Corey:
|--9p5------------------------------------------------------------------------|
|--------------------9p5-------------------------------------------12p9-------|
|-------9-6---6-9-6---------------------6p4-----9p6-----11p9------------11-9--|
|-----------7-------------9-6---6-9---------6-4-----9-7------11-9-------------|
|-----------------------------7-----------------------------------------------|
|-----------------------------------------------------------------------------|

|--11p9----9-12-9-11-9----9-11-9----9-12-9-11-9----9-11-9----9-12-9-11-9---------------|
|-------12-------------12--------12-------------12--------12-------------12b14--12b~~~-|
|--------------------------------------------------------------------------------------|
|--------------------------------------------------------------------------------------|
|--------------------------------------------------------------------------------------|
|--------------------------------------------------------------------------------------|

|--------------------------------------------11-11-12-12-11-11---------|
|----------------------------------14-14-9-9-------------------12-12---|
|--------------9-9-------13-13-9-9-------------------------------------|
|--------11-11-----11-11-----------------------------------------------|
|--12-12---------------------------------------------------------------|
|----------------------------------------------------------------------|

|------------------------------------------14h16-14~~---12h14-12~~-----|
|--14-14-----------------------/17~~~~~--------------------------------|
|--------13-13-11-11-13------------------------------------------------|
|----------------------------------------------------------------------|
|----------------------------------------------------------------------|
|----------------------------------------------------------------------|

|--11-12-14--12--11---------------|
|--------------------12-----------|
|---------------------------------|
|---------------------------------|
|---------------------------------|
|---------------------------------|


Heafy:
|----------------------------------------------------------------------|
|--12b14--12b14~~~------14---16---16b17~~~-----16~~-----14----12~~~~~--|
|----------------------------------------------------------------------|
|----------------------------------------------------------------------|
|----------------------------------------------------------------------|
|----------------------------------------------------------------------|

|----------------------------------------------------------------------|
|--14~~~--------14h16p14---12~~------12h14p12---9~~~----9h12p9---------|
|----------------------------------------------------------------11~~--|
|----------------------------------------------------------------------|
|----------------------------------------------------------------------|
|----------------------------------------------------------------------|

|----------------------------------------------------------------------|
|--------------12b14--12b14~~~----14---16---16b17~~~---16~~---14---12~-|
|--------9h11----------------------------------------------------------|
|--9h11----------------------------------------------------------------|
|----------------------------------------------------------------------|
|----------------------------------------------------------------------|

|--------------------------------9-12-14-------------------------------|
|--9-9-12-12-14-14-14-14-9-12-14---------9-9-12-12-14-14-14-14-9-12-14-|
|----------------------------------------------------------------------|
|----------------------------------------------------------------------|
|----------------------------------------------------------------------|
|----------------------------------------------------------------------|

|--9-12-14--16---14---16---19---17---19----19b21~~~~~~~~-------\--\----|
|-----------|       Tremelo Pick  |------------------------------------|
|----------------------------------------------------------------------|
|----------------------------------------------------------------------|
|----------------------------------------------------------------------|
|----------------------------------------------------------------------|
Добавлено: 30.09.2013
Другие материалы по этой песне:

Страница создана 24.08.2013
http://primanota.ru/trivium/strife-chords.htm
Привет, Гость.
Предлагаем пройти революционный курс по гитаре.
Подарок от PrimaNota.Ru, забирай!