PrimaNota.ru - самый крупный в мире бесплатный архив песенных текстов, аккордов, табулатур и нот


Trivium - Like Light To Flies - текст песни, таба, бас-таба, видео

Регистрация Запомнить меня
Войти через:  Facebook Google Twitter Vk Yandex Mail.ru

Trivium - Like Light To Flies - текст песни, таба, бас-таба, видео

Печатать
Просмотров: 373
Авторы музыки: Corey Beaulieu, Matt Heafy

This is their live version
Corey 2nd solo:

|---------------------------10-10------------------------|
|-----------------------8-8------11-11-13-13-------------|
|7~--7-9-10-9h10-7-9-10----------------------------------|
|--7-----------------------------------------------------|
|--------------------------------------------------------|
|--------------------------------------------------------|

|--------------------------------------------------------|
|-----------------------8-8-10-11-13-15-15\--------------|
|7sb--7-9-10-9h10-7-9-10---------------------------------|
|---7----------------------------------------------------|
|--------------------------------------------------------|
|--------------------------------------------------------|


                                                 While Bending the 17th Fret
                                                    Tap once the 18th fret
Matts Solo:
|------------------------13----------------------------------12-13-15-17b18t-17-|
|-----------------13-13b---13-----------------------12-13-15------------------|
|-9-10-9h10-----------------17b----------10-12-14-----------------------------|
|-----------12-15---------------10-12-14--------------------------------------|
|-----------------------------------------------------------------------------|
|-----------------------------------------------------------------------------|


|-17-15h17p15-----------15-17-20b--22-17--18-17h18p17--17---------------------|
|------------17-15-17-18----------------------------18--18-17-15-----15-18-15-|
|---------------------------------------------------------------14-17---------|
|-----------------------------------------------------------------------------|
|-----------------------------------------------------------------------------|
|-----------------------------------------------------------------------------|
Play this really fast
|----10----10---10-----10-----10-----10---12--13--15--17~---------------|
|-13b---12b--13b---12b----13b----12b------15b-16b-18b-20b~--------------|
|-----------------------------------------------------------------------|
|-----------------------------------------------------------------------|
|-----------------------------------------------------------------------|
|-----------------------------------------------------------------------|

|---20-17------17-20-17------18--20-17------17-20-----------|
|--------18--18--------18--18---------18--18-----18--18-20--|
|----------19------------19-------------19---------19-------|
|-----------------------------------------------------------|
|-----------------------------------------------------------|
|-----------------------------------------------------------|
                                     With the bar pull down 1 step on the                
                     17th fret and while
                                  youre doing that slightly touch the 21 fret
                                   and pull up about 2 steps

|-20-17------17-20-17------17---20b------------------------|
|------18--18--------18--18----------17w/bar-21th----------|
|--------19------------19----------------------------------|
|----------------------------------------------------------|
|----------------------------------------------------------|
|----------------------------------------------------------|

th=touch harmonic
t=tap
h=hamer-on
sb=slap bar
Добавлено: 08.03.2012
Другие материалы по этой песне:

Страница создана 08.03.2012
http://primanota.ru/trivium/like-light-to-the-flies-chords.htm
Привет, Гость.
Предлагаем пройти революционный курс по гитаре.
Подарок от PrimaNota.Ru, забирай!