PrimaNota.ru - самый крупный в мире бесплатный архив песенных текстов, аккордов, табулатур и нот


Trivium - Rise Above The Tides - таба, видео

Регистрация Запомнить меня
Войти через:  Facebook Google Twitter Vk Yandex Mail.ru

Trivium - Rise Above The Tides - таба, видео

Печатать
Просмотров: 113
-------------------------------------------------------------------------------
                             RISE ABOVE THE TIDES - Trivium
-------------------------------------------------------------------------------
Tabbed by: JediMaster123
E-mail: mjd_beef@live.com

Tuning: Half Step down (7 string)

This tracks got one of the sweeter solos on the album.

Enjoy and rate!


INTRO/CHORUS


Lead 1
 Eb|------------------------------------------------------|
 Bb|------------------------------------------------------|
 Gb|--------13-----11~------------------------------------|
 Db|-11--11----14~------13~----14~----13~----11~----------|
 Ab|------------------------------------------------------|
 Eb|------------------------------------------------------|
 Bb|------------------------------------------------------|
Lead 2
 Eb|--------16-----14~------------------------------------|
 Bb|-14--14----17~------16~----17~----16~----14~----------|
 Gb|------------------------------------------------------|
 Db|------------------------------------------------------|
 Ab|------------------------------------------------------|
 Eb|------------------------------------------------------|
 Bb|------------------------------------------------------|
Rythm
 Eb|------------------------------------------------------|
 Bb|------------------------------------------------------|
 Gb|------------------------------------------------------|
 Db|------------------------------------------------------|
 Ab|-11-11-11-11-11-11-11-11-11-11-11-11-11-11-11-11------|
 Eb|-9--9--9--9--9--9--9--9--9--9--9--9--9--9--9--9-------|
 Bb|------------------------------------------------------|

Lead 1                      |1.                      |2.
 Eb|-----------------------|-----------------------||--------------------------|
 Bb|-----------------------|-----------------------||--------------------------|
 Gb|-------14-13~-14-13-11-|-9--9--13-11~-13-11-9~-||--------------------------|
 Db|-----------------------|-----------------------||-14~---------13\----------|
 Ab|-12-12-----------------|-----------------------||--------------------------|
 Eb|-----------------------|-----------------------||--------------------------|
 Bb|-----------------------|-----------------------||--------------------------|
Lead 2                      |1.                      |2.
 Eb|-------17-16~-17-16-14-|-12-12-16-14~-16-14-12-||--------------------------|
 Bb|-----------------------|-----------------------||-17~---------16/----------|
 Gb|-14-14-----------------|-----------------------||--------------------------|
 Db|-----------------------|-----------------------||--------------------------|
 Ab|-----------------------|-----------------------||--------------------------|
 Eb|-----------------------|-----------------------||--------------------------|
 Bb|-----------------------|-----------------------||--------------------------|
Rythm                       |1.                      |2.
 Eb|-----------------------|-----------------------||--------------------------|
 Bb|-----------------------|-----------------------||--------------------------|
 Gb|-----------------------|-----------------------||--------------------------|
 Db|-----------------------|-----------------------||--------------------------|
 Ab|-7-7-7-7-7-7-7-7-------|-----------------------||--------------------------|
 Eb|-5-5-5-5-5-5-5-5-------|--7-7-7--7-7-7-7-7-----||-7-------------7/---------|
 Bb|-----------------------|--5-5-5--4-4-4-4-4-----||-5-------------4/---------|


VERSE


Rythm 1 & 2
 Eb|------------------------------------------------|
 Bb|------------------------------------------------|
 Gb|------------------------------------------------|
 Db|------------------------------------------------| x2
 Ab|------------------------------------------------|
 Eb|-10--9--7~-----------9--10--9--7~---------------|
 Bb|------------0--0--0----------------0--0--0--0---|

Rythm 1
 Eb|------------------------------------------------------------------------|
 Bb|------------------------------------------------------------------------|
 Gb|------------------------------------------------------------------------|
 Db|------------------------------------------------------------------------|
 Ab|------------------------------------------------------------------------|
 Eb|-10--9--7~------9-10-9-7~---------10-9-7~-------9-12-12-12-12-10-10-9-9-|
 Bb|----------0-0-0-----------0-0-0-0---------0-0-0-------------------------|
Rythm 2
 Eb|------------------------------------------------------------------------|
 Bb|------------------------------------------------------------------------|
 Gb|------------------------------------------------------------------------|
 Db|------------------------------------------------------------------------|
 Ab|----------------------------------------------------10-10-10-10-9-9-7-7-|
 Eb|-14-12-10~------12-14-12-10~-------14-12-10~-----12---------------------|
 Bb|----------0-0-0-------------0-0-0-0---------0-0-0-----------------------|

Rythm 1
 Eb|------------------------------------------------------------------------|
 Bb|------------------------------------------------------------------------|
 Gb|------------------------------------------------------------------------|
 Db|------------------------------------------------------------------------|
 Ab|------------------------------------------------------------------------|
 Eb|-10--9--7~------9-10-9-7~---------10-9-7~-------9-12-12-12-12-10--------|
 Bb|----------0-0-0-----------0-0-0-0---------0-0-0-------------------------|
Rythm 2
 Eb|------------------------------------------------------------------------|
 Bb|------------------------------------------------------------------------|
 Gb|------------------------------------------------------------------------|
 Db|------------------------------------------------------------------------|
 Ab|----------------------------------------------------10-10-10-10-9-------|
 Eb|-14-12-10~------12-14-12-10~-------14-12-10~-----12---------------------|
 Bb|----------0-0-0-------------0-0-0-0---------0-0-0-----------------------|


Rythm 1 & 2  (3rd Verse Fill)
 Eb|-------------------------|
 Bb|-------------------------|
 Gb|-------------------------|
 Db|-------------------------|
 Ab|-5--5--5--5--4--4--0-0---|
 Eb|-14-14-14-14-12-12-9-9---|
 Bb|-------------------------|


SOLO

Lead                                N [Dive]
 Eb|-------------------------------------------------------------------------|
 Bb|-------------------------------16+---------/(12)\------------------------|
 Gb|-------------------------------------------------------------------------|
 Db|-------------------------------------------------------------------------|
 Ab|-------------------------------------------------------------------------|
 Eb|-------------------------------------------------------------------------|
 Bb|-------------------------------------------------------------------------|
Rythm
 Eb|-------------------------------------------------------------------------|
 Bb|-------------------------------------------------------------------------|
 Gb|-------------------------------------------------------------------------|
 Db|-------------------------------------------------------------------------|
 Ab|---------------------------------------------9---------------7-----------|
 Eb|-------------5--9--5--0--7~------------------10--------------9-----------|
 Bb|-0--0--0--0---------------------0--0--0--0-------0--0--0--0--------------|

Lead
 Eb|----------------------------------------------------|
 Bb|-----------5/7~~----8--7--5-------------------------|
 Gb|--4--6--7-------------------7--7+/9--7+~~-----------|
 Db|----------------------------------------------------|
 Ab|----------------------------------------------------|
 Eb|----------------------------------------------------|
 Bb|----------------------------------------------------|
Rythm
 Eb|----------------------------------------------------|
 Bb|----------------------------------------------------|
 Gb|----------------------------------------------------|
 Db|----------------------------------------------------|
 Ab|--------------5-----2-------------------------------|
 Eb|-----------3-----3-----3--------------5-----2-------|
 Bb|-0--0--0------------------0--0--0--3-----3------5---|

Lead
 Eb|----------------------------------------12--15--14~~--12--------|
 Bb|----------5--7--8--7~~~------12--14--15------------------15-14--|
 Gb|-4--6--7--------------------------------------------------------|
 Db|----------------------------------------------------------------|
 Ab|----------------------------------------------------------------|
 Eb|----------------------------------------------------------------|
 Bb|----------------------------------------------------------------|
Rythm
 Eb|----------------------------------------------------------------|
 Bb|----------------------------------------------------------------|
 Gb|----------------------------------------------------------------|
 Db|----------------------------------------------------------------|
 Ab|---------------------------------------------9---------------7--|
 Eb|-------------5--9--5--0--7~------------------10--------------9--|
 Bb|-0--0--0--0---------------------0--0--0--0-------0--0--0--0-----|


     +1       -1   +1/2      -1     0              +3
Lead /\    \______/          \/    /               /\
 Eb|-17---17-(15)-17----15---14----15---14---------10---------------|
 Bb|----------------------------------------------------------------|
 Gb|----------------------------------------------------------------|
 Db|----------------------------------------------------------------|
 Ab|----------------------------------------------------------------|
 Eb|----------------------------------------------------------------|
 Bb|----------------------------------------------------------------|
Rythm
 Eb|----------------------------------------------------------------|
 Bb|----------------------------------------------------------------|
 Gb|----------------------------------------------------------------|
 Db|----------------------------------------------------------------|
 Ab|-----------------5------2---------------------------------------|
 Eb|-------------3-------3------3------------------5--------2-------|
 Bb|-0---0---0---------------------0---0---0---3-------3---------5--|

Lead
 Eb|-------------------------------19p15-------18p15--------17~------|
 Bb|-15b(Full)-----(17)~~----14/17-------17p15-------17p15------\15~-|
 Gb|-----------------------------------------------------------------|
 Db|-----------------------------------------------------------------|
 Ab|-----------------------------------------------------------------|
 Eb|-----------------------------------------------------------------|
 Bb|-----------------------------------------------------------------|
Rythm
 Eb|-----------------------------------------------------------------|
 Bb|-----------------------------------------------------------------|
 Gb|-----------------------------------------------------------------|
 Db|-----------------------------------------------------------------|
 Ab|-------------5--9--5--0--7~---------------9-----------------7----|
 Eb|-0--0--0--0-------------------0--0--0--0--10----0--0--0--0--9----|
 Bb|-----------------------------------------------------------------|

Lead
 Eb|-------------------------------------------------------|
 Bb|-17---(17)\12--12/15~-\(10)--10+/12~--8+~-7-8-7-5~~----|
 Gb|-------------------------------------------------------|
 Db|-------------------------------------------------------|
 Ab|-------------------------------------------------------|
 Eb|-------------------------------------------------------|
 Bb|-------------------------------------------------------|
Rythm
 Eb|-------------------------------------------------------|
 Bb|-------------------------------------------------------|
 Gb|-------------------------------------------------------|
 Db|-------------------------------------------------------|
 Ab|-------------10-------------------------5-------2------|
 Eb|-0--0--0--8------8--0--8----0--0--0--3------3-------5--|
 Bb|-------------------------------------------------------|

Lead
 Eb|--------------------------------------5--7--8--7~~----5-----------|
 Bb|-----------------------------5--7--8---------------------8--7-----|
 Gb|----------2--4--5--4~~--------------------------------------------|
 Db|-2--4--5----------------------------------------------------------|
 Ab|------------------------------------------------------------------|
 Eb|------------------------------------------------------------------|
 Bb|------------------------------------------------------------------|
Rythm
 Eb|------------------------------------------------------------------|
 Bb|------------------------------------------------------------------|
 Gb|------------------------------------------------------------------|
 Db|------------------------------------------------------------------|
 Ab|-------------5--9--5--0--7~---------------9-----------------7-----|
 Eb|-0--0--0--0-------------------0--0--0--0--10----0--0--0--0--9-----|
 Bb|------------------------------------------------------------------|

Lead
 Eb|-12-0-0-14-0-0-15-0-17-0-0-19-0-0-22-0-22b(Full)-22b(Full)-|
 Bb|-----------------------------------------------------------|
 Gb|-----------------------------------------------------------|
 Db|-----------------------------------------------------------|
 Ab|-----------------------------------------------------------|
 Eb|-----------------------------------------------------------|
 Bb|-----------------------------------------------------------|
Rythm
 Eb|-----------------------------------------------------------|
 Bb|-----------------------------------------------------------|
 Gb|-----------------------------------------------------------|
 Db|-----------------------------------------------------------|
 Ab|-------------10-------------------------5-------2----------|
 Eb|-0--0--0--8------8--0--8----0--0--0--3------3-------5------|
 Bb|-----------------------------------------------------------|

Lead
 Eb|--------------------------------------------14-12-10-9-10-12-|
 Bb|------------7----------------------------12------------------|
 Gb|-\4~--7--4----9b(Full)--9--7-6--/7~--/11---------------------|
 Db|-------------------------------------------------------------|
 Ab|-------------------------------------------------------------|
 Eb|-------------------------------------------------------------|
 Bb|-------------------------------------------------------------|
Rythm
 Eb|-------------------------------------------------------------|
 Bb|-------------------------------------------------------------|
 Gb|-------------------------------------------------------------|
 Db|--------------------------------5----7--------7--------------|
 Ab|-2-----4----------4-------------5----5--5--5--5--------------|
 Eb|-2-----2---2--2---2-------------3----3--3--3--3--------------|
 Bb|-0-----0---0--0---0------------------------------------------|

Lead
 Eb|-10--5-----------14-----17---15-14----|
 Bb|--------6----------15-------------17--|
 Gb|-----------7~~-------14----14---------|
 Db|--------------------------------------|
 Ab|--------------------------------------|
 Eb|--------------------------------------|
 Bb|--------------------------------------|
Rythm
 Eb|--------------------------------------|
 Bb|--------------------------------------|
 Gb|--------------------------------------|
 Db|--------------------------------------|
 Ab|-5-------------5----------------------|
 Eb|-5----5--5--5--5----------0-----------|
 Bb|-3----3--3--3--3------3------3---2----|

Lead
 Eb|-------------------------17~~~--------|
 Bb|-17b(Full)---17--15--14---------------|
 Gb|--------------------------------------|
 Db|--------------------------------------|
 Ab|--------------------------------------|
 Eb|--------------------------------------|
 Bb|--------------------------------------|
Rythm
 Eb|--------------------------------------|
 Bb|--------------------------------------|
 Gb|-2-------------2----------------------|
 Db|-2----2--2--2--2----------------------|
 Ab|-0----0--0--0--0----------------------|
 Eb|--------------------------------------|
 Bb|--------------------------------------|

Lead
 Eb|----------------------------22-21-19h21p19--19----------------------------------------|
 Bb|-22b(24)-22b(24)-22b(24)-19---------------20--20-19-17-19-17h19p17--17-15h17p15--15---|
 Gb|------------------------------------------------------------------19-----------18--16-|
 Db|--------------------------------------------------------------------------------------|
 Ab|--------------------------------------------------------------------------------------|
 Eb|--------------------------------------------------------------------------------------|
 Bb|--------------------------------------------------------------------------------------|
Rythm
 Eb|--------------------------------------------------------------------------------------|
 Bb|--------------------------------------------------------------------------------------|
 Gb|--------------------------------------------------------------------------------------|
 Db|-----------------------------5----7--------7------------------------------------------|
 Ab|-2-----4----------4----------5----5--5--5--5------------------------------------------|
 Eb|-2-----2---2--2---2----------3----3--3--3--3------------------------------------------|
 Bb|-0-----0---0--0---0-------------------------------------------------------------------|

Lead
 Eb|-15-14h15p14---------14-12h14p12---------------|
 Bb|------------15---------------------------------|
 Gb|--------------14----------------12-11-9-11-9-7-|
 Db|----------------16~----------------------------|
 Ab|-----------------------------------------------|
 Eb|-----------------------------------------------|
 Bb|-----------------------------------------------|
Rythm
 Eb|-----------------------------------------------|
 Bb|-----------------------------------------------|
 Gb|-----------------------------------------------|
 Db|-----------------------------------------------|
 Ab|-5-------------5-------------------------------|
 Eb|-5----5--5--5--5----------0--------------------|
 Bb|-3----3--3--3--3------3------3---2-------------|

Lead                                                  N Dive
 Eb|-------------------------10-10-10-12-12-12-14-14--12+------|
 Bb|-10-10-10-10-12-12-14-14-----------------------------------|
 Gb|-----------------------------------------------------------|
 Db|-----------------------------------------------------------|
 Ab|-----------------------------------------------------------|
 Eb|-----------------------------------------------------------|
 Bb|-----------------------------------------------------------|
Rythm
 Eb|-----------------------------------------------------------|
 Bb|-----------------------------------------------------------|
 Gb|-----------------------------------------------------------|
 Db|-2----2----2----2----2----2----2----2-----2----4--4--4--4--|
 Ab|-0----0----0----0----0----0----0----0-----0----1--1--1--1--|
 Eb|-----------------------------------------------------------|
 Bb|-----------------------------------------------------------|


POST SOLO


Lead 1 & 2
 Eb|-------------------------------------------------------------------------|
 Bb|-------------------------------------------------------------------------|
 Gb|--4--6--7--4~---6--7--4~---------4---6---7---4---6---7--/11--9---7---6~--|
 Db|-------------------------------------------------------------------------| x2
 Ab|--2--4--5--2~---4--5--2~---------2---4---5---2---4---5--/9---7---5---4~--|
 Eb|-------------------------------------------------------------------------|
 Bb|-------------------------------------------------------------------------|

Lead 1 & 2
 Eb|--9--11-12-9~--11-12-9~----------9---11--12--9--11--12--/16---14--12--11-|
 Bb|-------------------------------------------------------------------------|
 Gb|--6--8--9--6~--8--9--6~----------6---8---9---6---8---9--/13---11--9---8--|
 Db|-------------------------------------------------------------------------| x2
 Ab|-------------------------------------------------------------------------|
 Eb|-------------------------------------------------------------------------|
 Bb|-------------------------------------------------------------------------|



************************************

| /   slide up
| \   slide down
| h   hammer-on
| p   pull-off
| ~   vibrato
| +   harmonic
| x   Mute note
| b   Bend
| pb  Pre-bend
| br  Bend release
| pbr Pre-bend release
| brb Bend release bend

************************************
Добавлено: 17.02.2016
Другие материалы по этой песне:

Страница создана 17.02.2016
http://primanota.ru/trivium/rise-above-tides-chords.htm
Привет, Гость.
Предлагаем пройти революционный курс по гитаре.
Подарок от PrimaNota.Ru, забирай!