PrimaNota.ru - самый крупный в мире бесплатный архив песенных текстов, аккордов, табулатур и нот


Toby Fox - Fallen Down - таба, видео

Регистрация Запомнить меня
Войти через:  Facebook Google Twitter Vk Yandex Mail.ru

Toby Fox - Fallen Down - таба, видео

Печатать
Просмотров: 164
Авторы музыки: Toby Fox

-------------------------------------------------------------------------------
                             FALLEN DOWN - Toby Fox
-------------------------------------------------------------------------------
Tabbed by: zdoulis@gmail.com
Tuning: Standard (EADGBE)

CAPO ON 3RD FRET

e|----------------------------------------------------|
B|----------------------------------------------------|
G|----------------------------------------------------|
D|------------------------------3----3----------------|
A|---3---3---3---3---3---3----1---3----1-----------1--|
E|-3---3---3---3---3---3-----------------1-0-1-3-0----|

e|----------------------------------------------------|
B|----------------------------------------------------|
G|----------------------------------------------------|
D|----------------------------------------------------|
A|---1---1---1---0---0---0---------4---4------4-3-----|
E|-3---3---3---3---3---3----4---3---3----1-1----------|

The end of the song is a bit iffy, so any corrections are welcome :)
Добавлено: 15.03.2016
Другие материалы по этой песне:
  • Аккорды и текст

Страница создана 15.03.2016
http://primanota.ru/toby-fox/fallen-down-chords.htm
Привет, Гость.
Предлагаем пройти революционный курс по гитаре.
Подарок от PrimaNota.Ru, забирай!