PrimaNota.ru - самый крупный в мире бесплатный архив песенных текстов, аккордов, табулатур и нот


Toby Fox - Undertale - Spear Of Justice Undyne - таба, видео

Регистрация Запомнить меня
Войти через:  Facebook Google Twitter Vk Yandex Mail.ru

Toby Fox - Undertale - Spear Of Justice Undyne - таба, видео

Печатать
Просмотров: 958
Уроки эстрадного вокала в Санкт-Петербурге
-------------------------------------------------------------------------------
                             Spear of Justice - Undertale
-------------------------------------------------------------------------------
Tabbed by: Katie Wright
E-mail:

Tuning: STANDARD

e|--3-------1--0-------------3---------1--0-------------3---------1--0-------|
B|------3----------1--3-----------3-----------1--3-----------3----------3--1-|
G|---------------------------------------------------------------------------|
D|---------------------------------------------------------------------------|
A|---------------------------------------------------------------------------|
E|---------------------------------------------------------------------------|

e|-----------------1--3--------1--0----------3--------1--0-----------3-------|
B|--3--1--------3----------3----------1--3--------3-----------1--3-------3---|
G|--------3--2---------------------------------------------------------------|
D|---------------------------------------------------------------------------|
A|---------------------------------------------------------------------------|
E|---------------------------------------------------------------------------|

e|-1--0---------------------1--3---------1--0----------3------1--0-----------|
B|--------3--1--3--1------3---------3-----------1--3-------3--------1--3-----|
G|-------------------3--2----------------------------------------------------|
D|---------------------------------------------------------------------------|
A|---------------------------------------------------------------------------|
E|---------------------------------------------------------------------------|

e|--3--------1--0-----------------------1--3--------1--0----------3----------|
B|-------3---------3--1--3--1--------3----------3----------1--3--------3-----|
G|-----------------------------3--2------------------------------------------|
D|---------------------------------------------------------------------------|
A|---------------------------------------------------------------------------|
E|---------------------------------------------------------------------------|

e|--1--0----------3--------1--0----------------------1--4-----2--1-----------|
B|---------1--3--------3---------3--1--3--1--------3--------4---------2--4---|
G|-------------------------------------------3--2----------------------------|
D|---------------------------------------------------------------------------|
A|---------------------------------------------------------------------------|
E|---------------------------------------------------------------------------|

e|--4-------2--1----------4--------2--1------------------------2--4----------|
B|------4---------2--4---------4----------4--2--4--2--------4---------4------|
G|----------------------------------------------------4--3-------------------|
D|---------------------------------------------------------------------------|
A|---------------------------------------------------------------------------|
E|---------------------------------------------------------------------------|

e|-2--1--------4------2--1---------4-------2--1------------------------2-----|
B|-------2--4------4--------2--4-------4----------4--2--4--2--------4--------|
G|------------------------------------------------------------4--3-----------|
D|---------------------------------------------------------------------------|
A|---------------------------------------------------------------------------|
E|---------------------------------------------------------------------------|

e|--4-----3--4--6---4-----0--3--4--4--0--------------------------------------|
B|----4---------------4-----------------3--4---------------------------------|
G|------4---------------4----------------------------------------------------|
D|---------------------------------------------------------------------------|
A|---------------------------------------------------------------------------|
E|---------------------------------------------------------------------------|



This is only the first 30 seconds of the tune. If you don't already know it then its quite a fast,
complex tune with lots of jumping around but this should be pretty accurate.

************************************

| /   slide up
| \   slide down
| h   hammer-on
| p   pull-off
| ~   vibrato
| +   harmonic
| x   Mute note
| b   Bend
| pb  Pre-bend
| br  Bend release
| pbr Pre-bend release
| brb Bend release bend

************************************
Добавлено: 19.04.2016
Другие материалы по этой песне:
  • Аккорды и текст

Страница создана 19.04.2016
http://primanota.ru/toby-fox/undertale-spear-of-justice-undyne-chords.htm
Привет, Гость.
Предлагаем пройти революционный курс по гитаре.
Подарок от PrimaNota.Ru, забирай!