PrimaNota.ru - самый крупный в мире бесплатный архив песенных текстов, аккордов, табулатур и нот


Toby Fox - Undertale - таба, бас-таба, видео

Регистрация Запомнить меня
Войти через:  Facebook Google Twitter Vk Yandex Mail.ru

Toby Fox - Undertale - таба, бас-таба, видео

Печатать
Просмотров: 705
Уроки эстрадного вокала в Санкт-Петербурге
Авторы музыки: Toby Fox

-------------------------------------------------------------------------------
                             "Undertale" by Toby Fox
-------------------------------------------------------------------------------
Tabbed by: Mettaton

Tuning: Standard (EADGBe)

First tab I've done, but it was fairly easy to figure out. Hope you like it.

e|----------------------------------------------------------------------------------------|
B|-----10--8-----7-7-8----10--8-----7-7-8-------10--8-----7-7-8----8--10--12--10--8--8--10|
G|--8---------8-----------8------8-----------8---------8----------------------------------|
D|----------------------------------------------------------------------------------------|
A|----------------------------------------------------------------------------------------|
E|----------------------------------------------------------------------------------------|

Melody at at 2:50

e|----------------------------------12---11-10-8-----|
B|--------11--9--8-------------8---------------------|
G|--10--------------10--9--10------------------------|
D|---------------------------------------------------|
A|---------------------------------------------------|
E|---------------------------------------------------|

e|---------------------------------------------------|
B|---------------------------------------------------|
G|--------11--8-------------8------------------------|
D|--10-----------10--8--10-----7----10----10--8--7--8|
A|---------------------------------------------------|
E|---------------------------------------------------|
Добавлено: 19.04.2016
Другие материалы по этой песне:

Страница создана 15.03.2016
http://primanota.ru/toby-fox/undertale-chords.htm
Привет, Гость.
Предлагаем пройти революционный курс по гитаре.
Подарок от PrimaNota.Ru, забирай!