PrimaNota.ru - самый крупный в мире бесплатный архив песенных текстов, аккордов, табулатур и нот


Toby Fox - Spider Dance - бас-таба, видео

Регистрация Запомнить меня
Войти через:  Facebook Google Twitter Vk Yandex Mail.ru

Toby Fox - Spider Dance - бас-таба, видео

Печатать
Просмотров: 308
Авторы музыки: Toby Fox

Yet another Undertale song.  This time, I REALLY step up the flair for bass since it was a bit too dry and
simple-sounding as the original version. Two smaller numbers together (1s and 2s for example) does not mean an
11; it's meant to mean two 1s played very very close together.

Song Link: https://www.youtube.com/watch?v=YZ3XjVVNagU

-------------------------------------------------------------------------------------------------------------

0:00: Bass, Lead starts

G|-----------------------------------------------------|
D|---------------------------------------3~-5~-6~-6-5~-| (Repeat until 0:32)
A|---------4-4-4-4-----------------4~-6~---------------|
E|-1-1-1-1---------1-1-3-3-4-4-6-6---------------------|

0:33

G|---------------------------------|
D|---------------------------------| (Repeat until 0:49)
A|-----------------4-44-44-3-33-33-|
E|-1-11-11-6-66-66-----------------|

0:50

G|------------------------------------------------------------|
D|------------------------------------------------------------|
A|-----------------4-4-4-6-3-3-3-4-1h3h4p3h4h6p4h6h8p6p4h6p3~-|
E|-1-1-1-1-6-6-6-6--------------------------------------------|

0:58

G|----------------------------------------------------------------|
D|----------------------------------------------------------------|
A|-----------------4-4-4-6-3-3-3-4---------3-3-3-3-8-8-6-6-4-6-8~-|
E|-1-1-1-1-6-6-6-6-----------------1-1-1-1------------------------|

1:06: No Bass

1:15: No Bass, Lead plays

1:23

G|----------------------------------------------------------------|
D|----------------------------------------------6p5-x-5-x-6-x-6-x-|
A|-8-x-8-x-8-x-8-6-3-x-3-x-3-x-3-6-8-x-8-x-8-x-8------------------|
E|----------------------------------------------------------------|

1:32

G|----------------------------------------------------|
D|----------------------------------------------------|
A|-8-x-8-x-8-x-8-6-3-x-3-x-3-x-3-6-8-x-8-x-8-x-8-x-8~-|
E|----------------------------------------------------|

1:40: No Bass
Добавлено: 15.03.2016
Другие материалы по этой песне:

Страница создана 15.03.2016
http://primanota.ru/toby-fox/spider-dance-chords.htm
Привет, Гость.
Предлагаем пройти революционный курс по гитаре.
Подарок от PrimaNota.Ru, забирай!