PrimaNota.ru - самый крупный в мире бесплатный архив песенных текстов, аккордов, табулатур и нот


Toby Fox - Snowy - таба, видео

Регистрация Запомнить меня
Войти через:  Facebook Google Twitter Vk Yandex Mail.ru

Toby Fox - Snowy - таба, видео

Печатать
Просмотров: 182
Авторы музыки: Toby Fox

-------------------------------------------------------------------------------
                         Toby Fox - Undertale OST - Snowy Intro.
-------------------------------------------------------------------------------
Tabbed by: moportalturret
E-mail: moportalturret@gmail.com

Tuning: Standard 

e|--------10-------------------------------------|
B|--------------8--10--12-10--8------------------|
G|------------8----------------------------------|
D|-----------------------------------------------| X2
A|-----------------------------------------------|
E|-----------------------------------------------|

e|---------9---------------------------------|
B|--------------8--10--12-15-14--------------|
G|------------8--------------------14--13----|
D|-------------------------------------------|
A|-------------------------------------------|
E|-------------------------------------------|

Thats its, i don't think it's 100% accurate but is good for me at the moment
(as you can see, it's only a short percent of the melody)


************************************

| /   slide up
| \   slide down
| h   hammer-on
| p   pull-off
| ~   vibrato
| +   harmonic
| x   Mute note
| b   Bend
| pb  Pre-bend
| br  Bend release
| pbr Pre-bend release
| brb Bend release bend

************************************
Добавлено: 15.03.2016
Другие материалы по этой песне:
  • Аккорды и текст

Страница создана 15.03.2016
http://primanota.ru/toby-fox/snowy-chords.htm
Привет, Гость.
Предлагаем пройти революционный курс по гитаре.
Подарок от PrimaNota.Ru, забирай!