PrimaNota.ru - самый крупный в мире бесплатный архив песенных текстов, аккордов, табулатур и нот


Toby Fox - Megalovania - таба, бас-таба, видео

Регистрация Запомнить меня
Войти через:  Facebook Google Twitter Vk Yandex Mail.ru

Toby Fox - Megalovania - таба, бас-таба, видео

Печатать
Просмотров: 310
Авторы музыки: Toby Fox

-------------------------------------------------------------------------------
                             SONG NAME - Band Name
-------------------------------------------------------------------------------
Tabbed by: Wholeon
E-mail: darkus562@gmail.com
This is my first tab, I'm sorry if it isn't very good! .-.
Tuning:E A D G B e

e|---------------------------------------------------------------------------|
B|------3--------------------------3-----------------------------------------|
G|--------2--1-0--------0------------2--1-0---------0------------------------|
D|-0-0------------3-0-3----------------------3-0-3---------------------------|
A|----------------------------3-3--------------------------------------------|
E|---------------------------------------------------------------------------|

e|---------------------------------------------------------------------------|
B|------3--------------------------3-----------------------------------------|  .
G|--------2--1-0---------0-----------2--1-0---------0------------------------|
D|----------------3-0-3----------------------3-0-3---------------------------|  .
A|-2-2-----------------------1-1----------------------------------- ---------|
E|---------------------------------------------------------------------------|


************************************
You're gonna have a bad time.

************************************
Добавлено: 15.03.2016
Другие материалы по этой песне:

Страница создана 15.03.2016
http://primanota.ru/toby-fox/megalovania-chords.htm
Привет, Гость.
Предлагаем пройти революционный курс по гитаре.
Подарок от PrimaNota.Ru, забирай!