PrimaNota.ru - самый крупный в мире бесплатный архив песенных текстов, аккордов, табулатур и нот


The Used - Now That Youre Dead - таба, видео

Регистрация Запомнить меня
Войти через:  Facebook Google Twitter Vk Yandex Mail.ru

The Used - Now That Youre Dead - таба, видео

Печатать
Просмотров: 94
-------------------------------------------------------------------------------
                                                Now That You're Dead - The Used
-------------------------------------------------------------------------------
Tabbed by: Paecemaker
Email: martin.jurus@gmail.com



INTRO:

e|-------------------------------|-------------------------|
B|-------------------------------|-------------------------|
G|-------------------------------|------------666----------|
D|--xxx0xxxxxxxxxxxxxxxx---------|--0--33333--444--0~------|
A|--xxx0xxxxxxxxxxxxxxxx--X-3----|--0--33333--444--0~------|
D|--xxx0xxxxxxxxxxxxxxxx---------|--0--33333-------0~------|


VERSE: (listen for timing, it's around 1:15)

e|---------------------------------------------------|
B|---------------------------------------------------|
G|----7~---------------------------------------------|
D|----7~---------------------------------------------|
A|---------------------------------------------------|
D|---------------------------------------------------|



PRECHORUS:

e|------------------------------------------------|
B|------33333-------33333-------33333-------------|
G|------33333-------33333-------33333--------666--|
D|000---33333-00----33333-00----33333-33333--666--|
A|000---------00----------00----------33333--444--|
D|000---------00----------00----------33333-------|
   PM         PM          PM
 


CHORUS: (strum it out yourself)

e|-----------------------------------------------------------------------------------|
B|-----------------------------------------------------------------------------------|
G|-1414141414141414-----1313131313131313-----7777777777777777----10101010101010------|
D|-1212121212121212-----XXXXXXXXXXXXXXXX-----XXXXXXXXXXXXXXXX----XXXXXXXXXXXXXX------|  2x
A|-1212121212121212-----1111111111111111-----5555555555555555----88888888888888------|
D|-1212121212121212-----8888888888888888-----3333333333333333----66666666666666------|


Repeat PRECHORUS, but end on 0~ like in intro and go on VERSE (2:00)

Then again PRECHORUS
Then CHORUS

And then BRIDGE:

e|----------------------------------------------------------------------------------|
B|----------------------------------------------------------------------------------|
G|----------------------------------------------------------------------------------|
D|---------------------------------------XXXXX------------0~------------------------|
A|---------------------------------------XXXXX------------0~------------------------|
D|-0-3-2-1--000-3-2-1--000-3-2-1--33333--XXXXX-----2x-----0~------------------------|


BRIDGE continute:


e|---------------------------------------------------------------------------|
B|---------------------------------------------------------------------------|
G|-7-6-5-6--4x---------------------------------------------------------------|
D|---------------------------------------------------------------------------|
A|---------------------------------------------------------------------------|
D|---------------------------------------------------------------------------|


CHORUS again (but times)

And then:

e|-------------------------------|-------------------------|
B|-------------------------------|-------------------------|
G|-------------------------------|------------666----------|
D|--xxx0xxxxxxxxxxxxxxxx---------|--0--33333--444--0~-0----|
A|--xxx0xxxxxxxxxxxxxxxx--X-3----|--0--33333--444--0~-0----|
D|--xxx0xxxxxxxxxxxxxxxx---------|--0--33333-------0~-0----|
Добавлено: 15.08.2013
Другие материалы по этой песне:
  • Аккорды и текст

Страница создана 15.08.2013
http://primanota.ru/the-used/now-that-youre-dead-chords.htm
Привет, Гость.
Предлагаем пройти революционный курс по гитаре.
Подарок от PrimaNota.Ru, забирай!