PrimaNota.ru - самый крупный в мире бесплатный архив песенных текстов, аккордов, табулатур и нот


The Used - Liar Liar Burn In Hell - текст песни, таба, бас-таба, видео

Регистрация Запомнить меня
Войти через:  Facebook Google Twitter Vk Yandex Mail.ru

The Used - Liar Liar Burn In Hell - текст песни, таба, бас-таба, видео

Печатать
Просмотров: 355
-------------------------------------------------------------------------------
                             LIAR, LIAR (BURN IN HELL) - The Used
-------------------------------------------------------------------------------


Tabbed by: The Black Box
Email: Howidisappear15@gmail.com

NOTE: This is only the intro, but I'm working on the entire song 
(I'm very new to tabbing things myself).


Tuning: Standard

Guitar 1: (Elec w/ Heavy Dist.)
Guitar 2: (Elec w/ Heavy Dist.)


Gtr. 1
e|------||-------------------------------------|  |
B|------||-------------------------------------|  |
G|------||o-13-13-9--13-13-9--12--12-12-12-10-o|X2|
D|--/11-||o-11-11-7--11-11-7--10--12-12-12-10-o|  |
A|--/11-||--11-11-7--11-11-7--10--10-10-10--8--|  |
E|--/-9-||-------------------------------------|  |


Gtr. 1
e|-------------------------------------|
B|-------------------------------------|
G|--13-13-9--13-13-9--12--12-12-12-10--|
D|--11-11-7--11-11-7--10--12-12-12-10--|
A|--11-11-7--11-11-7--10--10-10-10--8--|
E|-------------------------------------|

Gtr.2
e|-------------------|
B|-------------------|
G|--6-6-6-6-6-6-6-6--|
D|--6-6-6-6-6-6-6-6--|
A|--4-4-4-4-4-4-4-4--|
E|-------------------|

Gtr. 1
e|---------------------------------------|
B|---------------------------------------|
G|--13-13-9--13-13-9--12-11-12-12-12-10--|
D|--11-11-7--11-11-7--10--9-12-12-12-10--|
A|--11-11-7--11-11-7--10--9-10-10-10--8--|
E|---------------------------------------|


Gtr.2
e|----------|
B|----------|
G|--6-6-6-6-|
D|--6-6-6-6-|
A|--4-4-4-4-|
E|----------|


Gtr. 1
e||-----------------------------------------||
B||-----------------------------------------||
G||o--13-13-9--13-13-9--12--12-12-12-10----o||
D||o--11-11-7--11-11-7--10--12-12-12-10----o||
A||---11-11-7--11-11-7--10--10-10-10--8-----||
E||-----------------------------------------||


Gtr. 2
e||-----------------------------------||
B||-----------------------------------||
G||o--6-6--6-6-6-4-------------------o||
D||o--6-6--6-6-6-4---7-7-7-7-4-4-4---o||
A||---4-4--4-4-4-2---7-7-7-7-4-4-4----||
E||------------------5-5-5-5-2-2-2----||


Gtr. 1
e|----------------------------------------|
B|----------------------------------------|
G|--13-13-9--13-13-9--12--12-12-12-10-15--|
D|--11-11-7--11-11-7--10--12-12-12-10-13--|
A|--11-11-7--11-11-7--10--10-10-10--8-13--|
E|----------------------------------------|

Gtr.2
e|----------------------------------|
B|----------------------------------|
G|--6-6--6-6-6-4--------------------|
D|--6-6--6-6-6-4---7-7-7-7-4-4-4----|
A|--4-4--4-4-4-2---7-7-7-7-4-4-4----|
E|-----------------5-5-5-5-2-2-2----|

Gtr. 1
e|-----------------------------------------------------|
B|-----------------------------------------------------|
G|--15-15-15-15-15-15-15-15---14-14-14-13-13-12--------|
D|--13-13-13-13-13-13-13-13---12-12-12-11-11-10--------|
A|--13-13-13-13-13-13-13-13---12-12-12-11-11-10--------|
E|-----------------------------------------------------|

Gtr. 2
e|-------------------------------------|
B|-------------------------------------|
G|-------------------------------------|
D|--4-4-4-4-4-4-4-4--7-7-7-7-7-7-7-7---|
A|--4-4-4-4-4-4-4-4--7-7-7-7-7-7-7-7---|
E|--2-2-2-2-2-2-2-2--5-5-5-5-5-5-5-5---|


| /  slide up
| \  slide down
| h  hammer-on
| p  pull-off
| ~  vibrato
| +  harmonic
| x  Mute note
===============================================================================
Добавлено: 09.07.2012
Другие материалы по этой песне:

Страница создана 12.03.2012
http://primanota.ru/the-used/liar-liar-burn-in-hell-chords.htm
Привет, Гость.
Предлагаем пройти революционный курс по гитаре.
Подарок от PrimaNota.Ru, забирай!