PrimaNota.ru - самый крупный в мире бесплатный архив песенных текстов, аккордов, табулатур и нот


The Used - Hurt No One - таба, видео

Регистрация Запомнить меня
Войти через:  Facebook Google Twitter Vk Yandex Mail.ru

The Used - Hurt No One - таба, видео

Печатать
Просмотров: 114
Artist: the Used
album: Vulnerable
Song: Hurt No One


verse1:

I never meant to hurt no one
nobody ever tore me down like you
--------------------------------|
--------------------------------|
-----1010-99-77---77-1010-99-77-|
--0~-x-x--xx-xx---xx-x-x--xx-xx-|
--0~-8-8--77-55---55-8-8--77-55-|
--0~----------------------------|

I think you knew it all along
and now you'll never see my face again
-------------------------------|
-------------------------------|
--9~---99-77-55---55-99-77-55--|
--x~---xx-xx-xx---xx-xx-xx-xx--|
--7~---77-55-33---33-55-33-33--|
-------------------------------|

I never meant to hurt nobody
and will I ever see the sun again?
--------------------------------|
--------------------------------|
--7--1010-99-77---77-1010-99-77-|
--x--x-x--xx-xx---xx-x-x--xx-xx-|
--5--8-8--77-55---55-8-8--77-55-|
--------------------------------|

I wonder where the guilt had gone
I think of what I have become
and still
-------------------------------|
-------------------------------|
--9~---99-77-55---55-99-77-55--|
--x~---xx-xx-xx---xx-xx-xx-xx--|
--7~---77-55-33---33-55-33-33--|
-------------------------------|

I never meant to hurt nobody
now I'm taking what is mine
--------------------------------|
--------------------------------|
--7--1010-99-77---77~--xxxx-----|
--x--x-x--xx-xx---xx~--xxxx-----|
--5--8-8--77-55---55~--xxxx-----|
--------------------------------|

Chorus:

letting..   mistaAakes
--------------------------------------------|
--------------------------------------------|
--------------------------------------------|
--3333333333333332-0000000000000000---------|
--3333333333333332-0000000000000000---------|
--3333333333333332-0000000000000000---------|

..learned ..fade a way            ..heart to break...
--------------------------------------------|
--------------------------------------------|
--------------------------------------------|
--2222222222000022-3333333333333333--xxxx---|
--2222222222000022-3333333333333333--xxxx---|
--2222222222000022-3333333333333333--xxxx---|

I cannot..   befoOore
--------------------------------------------|
--------------------------------------------|
--------------------------------------------|
--3333333333333332-0000000000000000---------|
--3333333333333332-0000000000000000---------|
--3333333333333332-0000000000000000---------|

..same    ..I'm not sure     ...love me anymore
--------------------------------------------|
--------------------------------------------|
--------------------------------------------|
--2222222222000022-3333333333333333~--------|
--2222222222000022-3333333333333333~--------|
--2222222222000022-3333333333333333~--------|

verse2:

Honestly its mostly just some heavy open D stuff with some quieter verse one riffs in 
the back.

kinds like this (but it sounds just as good when you play around)...

--------------------------------------------------|
--------------------------------------------------|
-----10101010-9999-7777---7777-10101010-9999-7777-|
--0~-x-x-x-x--xxxx-xxxx---xxxx-x-x-x-x--xxxx-xxxx-|
--0~-8-8-8-8--7777-5555---5555-8-8-8-8--7777-5555-|
--0~----------------------------------------------|

--------------------------------------------|
--------------------------------------------|
--99999999-7777-5555---5555-9999-7777-5555--|
--xxxxxxxx-xxxx-xxxx---xxxx-xxxx-xxxx-xxxx--|
--77777777-5555-3333---3333-5555-3333-3333--|
--------------------------------------------|

I never meant to hurt no one
sometimes you gotta look the other way
it never should've lasted so long
ashame you'll never see my face again
I never meant to hrut nobody
I know I'll never be the same again
now taking back what I have done
I think of what I have become
and still...
I never meant to hurt nobody
now I'm taking what is mine

Chorus

Break:
                                          (I like this better)
--------------------------------    ---------------------------------|
--------------------------------    ---------------------------------|
-------------------------------- or -10109~--10109~--10109~--101012~-|
-3-3-2~--3-3-2~--3-3-2~--3-3-5~-    -x-x-x---x-x-x---x-x-x---x-x-x---|
-3-3-2~--3-3-2~--3-3-2~--3-3-5~-    -8-8-7~--8-8-7~--8-8-7~--8-8-10~-|
-3-3-2~--3-3-2~--3-3-2~--3-3-5~-    ---------------------------------|

(guitar "1")
I never...    ...me down like you  I never...       ...what is mine
---------------------------------------------------------------------|
---------------------------------------------------------------------|
---------------------------------------------------------------------|
--33333333333333333333333333333333-222222222222222222222222222-xxxx--|
--33333333333333333333333333333333-222222222222222222222222222-xxxx--|
--33333333333333333333333333333333-222222222222222222222222222-xxxx--|
  ................................ ................................

(guitar "2")
---------------------------------------------------------------------|
---------------------------------------------------------------------|
-10--10--10--9---10--10--10--9-----9---9---9---7---9---9---9---xxxx--|
-x---x---x---x---x---x---x---x-----x---x---x---x---x---x---x---xxxx--|
-8---8---8---7---8---8---8---7-----7---7---7---5---7---7---7---xxxx--|
---------------------------------------------------------------------|

Chorus

end on D
------|
------|
------|
--0~--|
--0~--|
--0~--|

This is rough, but its fun a hell to play. and the song needed a tab.

-zeb
Добавлено: 15.08.2013
Другие материалы по этой песне:
  • Аккорды и текст

Страница создана 15.08.2013
http://primanota.ru/the-used/hurt-no-one-chords.htm
Привет, Гость.
Предлагаем пройти революционный курс по гитаре.
Подарок от PrimaNota.Ru, забирай!