PrimaNota.ru - самый крупный в мире бесплатный архив песенных текстов, аккордов, табулатур и нот


The Used - This Fire - текст песни, таба, видео

Регистрация Запомнить меня
Войти через:  Facebook Google Twitter Vk Yandex Mail.ru

The Used - This Fire - текст песни, таба, видео

Печатать
Просмотров: 114
----------------------------------------------------------------------------
                               This Fire
                                The Used
----------------------------------------------------------------------------

Most of this tab is basically orchestra because I believe it is fun to play different 
types of instruments on the guitar. If you don't like doing that, just play the regular 
parts. Great song by The Used whom never cease to amaze. Enjoy!

Username: dkm817 (same on X box live)
Youtube Cover: http://www.youtube.com/watch?v=4XRz_ybZOro
Email: guitardrums@rockfan.com

Guitar 1 Rhythmic     (C G C F A D)
Guitar 2 Lead         (C G C F A D)


Tab Guide...

==================================================================
(end of measures)

==================================================================
==================================================================
(end of parts)

==================================================================
==================================================================
==================================================================
(end of song)

(If there is a “continued” it is because the numbers could not
fit on 1 line.)


Intro

Guitar 1
D-----------------------------------------------------------------|
A-----------------------------------------------------------------|
F-----------------------------------------------------------------|
C-----------------------------------------------------------------|
G---------------------4---5---7---5---5~~~~~~~~-4~~~~~~~~---------|
C-9~~~~~~~~~~~~~~~~~~-------------------------------------9~~~~~~-|

Guitar 2
D-----------------------------------------------------------------|
A-15------15------15------15------15------15------15------15------|
F-16------16------16------16------16------16------16------16------|
C-----------------------------------------------------17------17--|
G-----------------------------------------------------------------|
C-----------------------------------------------------------------|

==================================================================

Guitar 1
D---------------------------------------------------------6---10--|
A-------------------------------------------------7---10----------|
F-----------------------------------------------------------------|
C-----------------------------------------------------------------|
G-----------------------------------------------------------------|
C-8~~~~~~~~~~~~~~~~~~~~~~~~~~~~~~-4~~~~~~~~~~~~~~~~~~~~~~~~~~~~~~-|

Guitar 2
D-----------------------------------------------------------------|
A-14------14------14------14------14------14------14------14------|
F-16------16------16------16------16------16------16------16------|
C-----------------------------------------------------16------16--|
G-----------------------------------------------------------------|
C-----------------------------------------------------------------|

==================================================================

Guitar 1
D-----------------------------------------------------------------|
A-----------------------------------------------------------------|
F-----------------------------------------------------------------|
C-----------------------------------------------------------------|
G---------------------4---5---7---5---5~~~~~~~~-4~~~~~~~~---------|
C-9~~~~~~~~~~~~~~~~~~-------------------------------------9~~~~~~-|

Guitar 2
D-----------------------------------------------------------------|
A-15------15------15------15------15------15------15------15------|
F-16------16------16------16------16------16------16------16------|
C-----------------------------------------------------17------17--|
G-----------------------------------------------------------------|
C-----------------------------------------------------------------|

==================================================================

Guitar 1
D-------------------------------------------------14--12----------|
A---------------------------------------------------------15--14--|
F-----------------------------------------------------------------|
C-----------------------------------------------------------------|
G-10~~~~~~~~~~~~~~~~~~~~~~~~~~~~~-9~~~~~~~~~~~~~~~~~~~~~~~~~~~~~~-|
C-----------------------------------------------------------------|

Guitar 2
D-----------------------------------------------------------------|
A-14------14------14------14------14------14------14------14------|
F-16------16------16------16------15------15------15------15------|
C-----------------------------------------------------16------16--|
G-----------------------------------------------------------------|
C-----------------------------------------------------------------|

==================================================================

Guitar 1
D---------------------------------------------------------10--12--|
A-----------------------------------------12--14--12--14----------|
F---------------------------------12--15--------------------------|
C-----------------------------------------------------------------|
G-10~~~~~~~~~~~~~~~~~~~~~~~~~~~~~---------------------------------|
C-----------------------------------------------------------------|

Guitar 2
D-----------------------------------------------------------------|
A-15------15------15------15------15------15------15------15------|
F-12------12------12------12------12------12------12------12------|
C-----------------------------------------------------------------|
G-----------------------------------------------------------------|
C-----------------------------------------------------------------|

==================================================================

Guitar 1
D-14~~~~~~~~~~~~~~~~~~~~~~~~~-------------------------------------|
A-----------------------------------------------------------------|
F-----------------------------------------------------------------|
C-----------------------------------------------------------------|
G-----------------------------------------10--9---7---5~~~~~~-5---|
C-------------------------------------9---------------------------|

Guitar 2
D-----------------------------------------------------------------|
A-14------14------14------14------14------14------14------14------|
F-11------11------11------11------11------11------11------11------|
C-----------------------------------------------------------------|
G-----------------------------------------------------------------|
C-----------------------------------------------------------------|

==================================================================

Guitar 1
D---------------------------------------------------------10--12--|
A-----------------------------------------12--14--12--14----------|
F---------------------------------12--15--------------------------|
C-----------------------------------------------------------------|
G-10~~~~~~~~~~~~~~~~~~~~~~~~~~~~~---------------------------------|
C-----------------------------------------------------------------|

Guitar 2
D-----------------------------------------------------------------|
A-15------15------15------15------15------15------15------15------|
F-16------16------16------16------16------16------16------16------|
C-17------17------17------17------17------17------17------17------|
G-----------------------------------------------------------------|
C-----------------------------------------------------------------|

==================================================================

Guitar 1
D-14~~~~~~~~~~~~~~~~~~~~~~~~~-------------------------------------|
A-----------------------------------------------------------------|
F-----------------------------------------------------------------|
C-----------------------------------------------------------------|
G-----------------------------------------------------------------|
C-----------------------------------------------------------------|

Guitar 2
D-----------------------------------------------------------------|
A-14--14--x---14--14--x---14--14~~~~~~~~~~~~~~~~~~~~~~~~~~~~~~~~~-|
F-15--15--x---15--15--x---15--15~~~~~~~~~~~~~~~~~~~~~~~~~~~~~~~~~-|
C-16--16--x---16--16--x---16--16~~~~~~~~~~~~~~~~~~~~~~~~~~~~~~~~~-|
G-----------------------------------------------------------------|
C-----------------------------------------------------------------|

==================================================================
==================================================================


Chorus 1

Guitar 1 & 2
D-----------------------------------------------------------------|
A-----------------------------------------------------------------|
F-----------------------------------------------------------------|
C-9---9---9---9---9---9---9---4---4---4---4---4---4---4---4---4---|
G-9---9---9---9---9---9---9---4---4---4---4---4---4---4---4---4---|
C-9---9---9---9---9---9---9---4---4---4---4---4---4---4---4---4---|

==================================================================

Guitar 1 & 2
D-----------------------------------------------------------------|
A-----------------------------------------------------------------|
F-7---7---7---7---7---7---7---------------------------------------|
C-7---7---7---7---7---7---7---2---2---2---2---2---2---2---2---2---|
G-5---5---5---5---5---5---5---2---2---2---2---2---2---2---2---2---|
C-----------------------------2---2---2---2---2---2---2---2---2---|

==================================================================

Guitar 1 & 2
D-----------------------------------------------------------------|
A-----------------------------------------------------------------|
F-----------------------------------------------------------------|
C-9---9---9---9---9---9---9---4---4---4---4---4---4---4---4---4---|
G-9---9---9---9---9---9---9---4---4---4---4---4---4---4---4---4---|
C-9---9---9---9---9---9---9---4---4---4---4---4---4---4---4---4---|

==================================================================

Guitar 1 & 2
D-----------------------------------------------------------------|
A-----------------------------------------------------------------|
F-----------------------------------------------------------------|
C-5---5---5---5---5---5---5---5---5---5---5---5---5---x-x-x-x-x-x-|
G-5---5---5---5---5---5---5---5---5---5---5---5---5---x-x-x-x-x-x-|
C-5---5---5---5---5---5---5---5---5---5---5---5---5---x-x-x-x-x-x-|

==================================================================

Guitar 1 & 2
D-----------------------------------------------------------------|
A-----------------------------------------------------------------|
F-----------------------------------------------------------------|
C-9---9---9---9---9---9---9---4---4---4---4---4---4---4---4---4---|
G-9---9---9---9---9---9---9---4---4---4---4---4---4---4---4---4---|
C-9---9---9---9---9---9---9---4---4---4---4---4---4---4---4---4---|

==================================================================

Guitar 1 & 2
D-----------------------------------------------------------------|
A-----------------------------------------------------------------|
F-7---7---7---7---7---7---7---------------------------------------|
C-7---7---7---7---7---7---7---2---2---2---2---2---2---x-x-x-x-x-x-|
G-5---5---5---5---5---5---5---2---2---2---2---2---2---x-x-x-x-x-x-|
C-----------------------------2---2---2---2---2---2---x-x-x-x-x-x-|

==================================================================

Guitar 1 & 2
D-----------------------------------------------------------------|
A-----------------------------------------------------------------|
F-----------------------------------------------------------------|
C-9---9---9---9---9---9---9---4---4---4---4---4---4---4---4---4---|
G-9---9---9---9---9---9---9---4---4---4---4---4---4---4---4---4---|
C-9---9---9---9---9---9---9---4---4---4---4---4---4---4---4---4---|

==================================================================

Guitar 1 & 2
D-----------------------------------------------------------------|
A-----------------------------------------------------------------|
F-----------------------------------------------------------------|
C-5---5---5---5---5---5---5---5---5---5---5---5---5---5---5---5---|
G-5---5---5---5---5---5---5---5---5---5---5---5---5---5---5---5---|
C-5---5---5---5---5---5---5---5---5---5---5---5---5---5---5---5---|

==================================================================
==================================================================


Bridge 1

Guitar 1
D-----------------------------------------------------------------|
A-----------------------------------------------------------------|
F-----------------------------------------------------------------|
C-9~~~~~~~~~~~~~~~~~~~~~~~~~~~~~~~~~~~~~~~~~~~~~~~~~~~~~~~~~~~~~~-|
G-9~~~~~~~~~~~~~~~~~~~~~~~~~~~~~~~~~~~~~~~~~~~~~~~~~~~~~~~~~~~~~~-|
C-9~~~~~~~~~~~~~~~~~~~~~~~~~~~~~~~~~~~~~~~~~~~~~~~~~~~~~~~~~~~~~~-|

Guitar 2
D-----------------------------------------------------------------|
A-15------15------15------15------15------15------15------15------|
F-16------16------16------16------16------16------16------16------|
C-----------------------------------------------------17------17--|
G-----------------------------------------------------------------|
C-----------------------------------------------------------------|

==================================================================

Guitar 1
D-----------------------------------------------------------------|
A----------------------------7~~~~~~~~~~~~~~~~~~~~~~~~~~~~~~~~~~~-|
F----------------------7~~~~~~~~~-9~~~~~~~~~~~~~~~~~~~~~~~~~~~~~~-|
C-----------------8~~~~~~~~~~~~~~~~~~~~~~~~~~~~~~~~~~~~~~~~~~~~~~-|
G-----------------------------------------------------------------|
C-----------------------------------------------------------------|

Guitar 2
D-----------------------------------------------------------------|
A-14------14------14------14------14------14------14------14------|
F-16------16------16------16------16------16------16------16------|
C-----------------------------------------------------16------16--|
G-----------------------------------------------------------------|
C-----------------------------------------------------------------|

==================================================================
==================================================================


Verse

Guitar 2
D-----------------------------------------------------------------|
A-15------15------15------15------15------15------15------15------|
F-16------16------16------16------16------16------16------16------|
C-----------------------------------------------------17------17--|
G-----------------------------------------------------------------|
C-----------------------------------------------------------------|

==================================================================

Guitar 2
D-----------------------------------------------------------------|
A-14------14------14------14------14------14------14------14------|
F-16------16------16------16------16------16------16------16------|
C-----------------------------------------------------16------16--|
G-----------------------------------------------------------------|
C-----------------------------------------------------------------|

==================================================================

Guitar 1
D-----------------------------------------------------------------|
A-----------------------------------------------------------------|
F-----------------------------------------------------------------|
C-----------------------------------------------------------------|
G---------------------4---5---7---5---5~~~~~~~~-4~~~~~~~~---------|
C-9~~~~~~~~~~~~~~~~~~-------------------------------------9~~~~~~-|

Guitar 2
D-----------------------------------------------------------------|
A-15------15------15------15------15------15------15------15------|
F-16------16------16------16------16------16------16------16------|
C-----------------------------------------------------17------17--|
G-----------------------------------------------------------------|
C-----------------------------------------------------------------|

==================================================================

Guitar 1
D-------------------------------------------------14--12----------|
A---------------------------------------------------------15--14--|
F-----------------------------------------------------------------|
C-----------------------------------------------------------------|
G-10~~~~~~~~~~~~~~~~~~~~~~~~~~~~~-9~~~~~~~~~~~~~~~~~~~~~~~~~~~~~~-|
C-----------------------------------------------------------------|

Guitar 2
D-----------------------------------------------------------------|
A-14------14------14------14------14------14------14------14------|
F-16------16------16------16------15------15------15------15------|
C-----------------------------------------------------16------16--|
G-----------------------------------------------------------------|
C-----------------------------------------------------------------|

==================================================================

Guitar 1
D---------------------------------------------------------10--12--|
A-----------------------------------------12--14--12--14----------|
F---------------------------------12--15--------------------------|
C-----------------------------------------------------------------|
G-10~~~~~~~~~~~~~~~~~~~~~~~~~~~~~---------------------------------|
C-----------------------------------------------------------------|

Guitar 2
D-----------------------------------------------------------------|
A-15------15------15------15------15------15------15------15------|
F-12------12------12------12------12------12------12------12------|
C-----------------------------------------------------------------|
G-----------------------------------------------------------------|
C-----------------------------------------------------------------|

==================================================================

Guitar 1
D-14~~~~~~~~~~~~~~~~~~~~~~~~~-------------------------------------|
A-----------------------------------------------------------------|
F-----------------------------------------------------------------|
C-----------------------------------------------------------------|
G-----------------------------------------10--9---7---5~~~~~~-5---|
C-------------------------------------9---------------------------|

Guitar 2
D-----------------------------------------------------------------|
A-14------14------14------14------14------14------14------14------|
F-11------11------11------11------11------11------11------11------|
C-----------------------------------------------------------------|
G-----------------------------------------------------------------|
C-----------------------------------------------------------------|

==================================================================

Guitar 1
D---------------------------------------------------------10--12--|
A-----------------------------------------12--14--12--14----------|
F---------------------------------12--15--------------------------|
C-----------------------------------------------------------------|
G-10~~~~~~~~~~~~~~~~~~~~~~~~~~~~~---------------------------------|
C-----------------------------------------------------------------|

Guitar 2
D-----------------------------------------------------------------|
A-15------15------15------15------15------15------15------15------|
F-16------16------16------16------16------16------16------16------|
C-17------17------17------17------17------17------17------17------|
G-----------------------------------------------------------------|
C-----------------------------------------------------------------|

==================================================================

Guitar 1
D-----------------------------------------------------------------|
A-----------------------------------------------------------------|
F-----------------------------------------------------------------|
C-4---4-------4---4-------4---4~~~~~~~~~~~~~~~~~~~~~~~~~~~~~~~~~~-|
G-4---4-------4---4-------4---4~~~~~~~~~~~~~~~~~~~~~~~~~~~~~~~~~~-|
C-4---4-------4---4-------4---4~~~~~~~~~~~~~~~~~~~~~~~~~~~~~~~~~~-|
Pm.   .       .   .       .   .

Guitar 2
D-----------------------------------------------------------------|
A-14--14--x---14--14--x---14--14~~~~~~~~~~~~~~~~~~~~~~~~~~~~~~~~~-|
F-15--15--x---15--15--x---15--15~~~~~~~~~~~~~~~~~~~~~~~~~~~~~~~~~-|
C-16--16--x---16--16--x---16--16~~~~~~~~~~~~~~~~~~~~~~~~~~~~~~~~~-|
G-----------------------------------------------------------------|
C-----------------------------------------------------------------|

==================================================================
==================================================================


Chorus 2

Guitar 1 & 2
D-----------------------------------------------------------------|
A-----------------------------------------------------------------|
F-----------------------------------------------------------------|
C-9---9---9---9---9---9---9---4---4---4---4---4---4---4---4---4---|
G-9---9---9---9---9---9---9---4---4---4---4---4---4---4---4---4---|
C-9---9---9---9---9---9---9---4---4---4---4---4---4---4---4---4---|

==================================================================

Guitar 1 & 2
D-----------------------------------------------------------------|
A-----------------------------------------------------------------|
F-7---7---7---7---7---7---7---------------------------------------|
C-7---7---7---7---7---7---7---2---2---2---2---2---2---2---2---2---|
G-5---5---5---5---5---5---5---2---2---2---2---2---2---2---2---2---|
C-----------------------------2---2---2---2---2---2---2---2---2---|

==================================================================

Guitar 1 & 2
D-----------------------------------------------------------------|
A-----------------------------------------------------------------|
F-----------------------------------------------------------------|
C-9---9---9---9---9---9---9---4---4---4---4---4---4---4---4---4---|
G-9---9---9---9---9---9---9---4---4---4---4---4---4---4---4---4---|
C-9---9---9---9---9---9---9---4---4---4---4---4---4---4---4---4---|

==================================================================

Guitar 1 & 2
D-----------------------------------------------------------------|
A-----------------------------------------------------------------|
F-----------------------------------------------------------------|
C-5---5---5---5---5---5---5---5---5---5---5---5---5---x-x-x-x-x-x-|
G-5---5---5---5---5---5---5---5---5---5---5---5---5---x-x-x-x-x-x-|
C-5---5---5---5---5---5---5---5---5---5---5---5---5---x-x-x-x-x-x-|

==================================================================

Guitar 1
D-----------------------------------------------------------------|
A-----------------------------------------------------------------|
F-----------------------------------------------------------------|
C-9---9---9---9---9---9---9---4---4---4---4---4---4---4---4---4---|
G-9---9---9---9---9---9---9---4---4---4---4---4---4---4---4---4---|
C-9---9---9---9---9---9---9---4---4---4---4---4---4---4---4---4---|

Guitar 2
D-----------------------------------------------------------------|
A-12--12--12--12--12--14--15--17--17--15--15--14--14--12--10--12--|
F-x---x---x---x---x---x---x---x---x---x---x---x---x---x---x---x---|
C-9---9---9---9---9---11--12--14--14--12--12--11--11--9---7---9---|
G-----------------------------------------------------------------|
C-----------------------------------------------------------------|

==================================================================

Guitar 1
D-----------------------------------------------------------------|
A-----------------------------------------------------------------|
F-7---7---7---7---7---7---7---------------------------------------|
C-7---7---7---7---7---7---7---2---2---2---2---2---2---x-x-x-x-x-x-|
G-5---5---5---5---5---5---5---2---2---2---2---2---2---x-x-x-x-x-x-|
C-----------------------------2---2---2---2---2---2---x-x-x-x-x-x-|

Guitar 2
D-----------------------------------------------------------------|
A-12--12--12--12--12--14--15--17--17--15--15--14--14--14--14--14--|
F-x---x---x---x---x---x---x---x---x---x---x---x---x---x---x---x---|
C-9---9---9---9---9---11--12--14--14--12--12--11--11--11--11--11--|
G-----------------------------------------------------------------|
C-----------------------------------------------------------------|

==================================================================

Guitar 1
D-----------------------------------------------------------------|
A-----------------------------------------------------------------|
F-----------------------------------------------------------------|
C-9---9---9---9---9---9---9---4---4---4---4---4---4---4---4---4---|
G-9---9---9---9---9---9---9---4---4---4---4---4---4---4---4---4---|
C-9---9---9---9---9---9---9---4---4---4---4---4---4---4---4---4---|

Guitar 2
D-----------------------------------------------------------------|
A-12--12--12--12--12--14--15--17--17--15--15--14--14--12--10--12--|
F-x---x---x---x---x---x---x---x---x---x---x---x---x---x---x---x---|
C-9---9---9---9---9---11--12--14--14--12--12--11--11--9---7---9---|
G-----------------------------------------------------------------|
C-----------------------------------------------------------------|

==================================================================

Guitar 1
D-----------------------------------------------------------------|
A-----------------------------------------------------------------|
F-----------------------------------------------------------------|
C-5---5---5---5---5---5---5---5---5---5---5---5---5---5---5---5---|
G-5---5---5---5---5---5---5---5---5---5---5---5---5---5---5---5---|
C-5---5---5---5---5---5---5---5---5---5---5---5---5---5---5---5---|

Guitar 2
D-----------------------------------------------------------------|
A-12--12--12--12--12--14--15--17--17--15--15--14--14--14--14--14--|
F-x---x---x---x---x---x---x---x---x---x---x---x---x---x---x---x---|
C-9---9---9---9---9---11--12--14--14--12--12--11--11--11--11--11--|
G-----------------------------------------------------------------|
C-----------------------------------------------------------------|

==================================================================
==================================================================


Interlude 1

(x2)

Guitar 1 & 2
D-----------------------------------------------------------------|
A-----------------------------------------------------------------|
F-----------------------------------------------------------------|
C-9---9---9---9---9-9-9-9-9---9---9---9---9---9---9---9---9---9---|
G-9---9---9---9---9-9-9-9-9---9---9---9---9---9---9---9---9---9---|
C-9---9---9---9---9-9-9-9-9---9---9---9---9---9---9---9---9---9---|
Pm        .   .   . . . . .   .   .   .   .   .   .   .   .   .

==================================================================

Guitar 1 & 2
D-----------------------------------------------------------------|
A-----------------------------------------------------------------|
F-----------------------------------------------------------------|
C-8---8---8---8---8-8-8-8-8---8---8---8---8---8---8---8---8---8---|
G-8---8---8---8---8-8-8-8-8---8---8---8---8---8---8---8---8---8---|
C-8---8---8---8---8-8-8-8-8---8---8---8---8---8---8---8---8---8---|
Pm.   .   .   .   . . . . .   .   .   .   .   .   .   .   .   .

==================================================================
==================================================================


Interlude 2

Guitar 1 & 2
D-----------------------------------------------------------------|
A-----------------------------------------------------------------|
F-----------------------------------------------------------------|
C-9---9---9---9---9-9-9-9-9---9---9---9---9---9---9---9---9---9---|
G-9---9---9---9---9-9-9-9-9---9---9---9---9---9---9---9---9---9---|
C-9---9---9---9---9-9-9-9-9---9---9---9---9---9---9---9---9---9---|
Pm        .   .   . . . .     .   .       .   .   .   .   .   .

==================================================================

Guitar 1 & 2
D-----------------------------------------------------------------|
A-----------------------------------------------------------------|
F-----------------------------------------------------------------|
C-8---8---8---8---8-8-8-8-8---8---8---8---8---8---8---8---8---8---|
G-8---8---8---8---8-8-8-8-8---8---8---8---8---8---8---8---8---8---|
C-8---8---8---8---8-8-8-8-8---8---8---8---8---8---8---8---8---8---|
Pm.   .   .   .   . . . . .   .   .   .   .   .   .   .   .   .

==================================================================

Guitar 1 & 2
D-----------------------------------------------------------------|
A-----------------------------------------------------------------|
F-----------------------------------------------------------------|
C-7---7---7---7---7-7-7-7-7---7---7---7---7---7---7---7---7---7---|
G-7---7---7---7---7-7-7-7-7---7---7---7---7---7---7---7---7---7---|
C-7---7---7---7---7-7-7-7-7---7---7---7---7---7---7---7---7---7---|
Pm        .   .   . . . . .   .   .   .   .   .   .   .   .   .

==================================================================

Guitar 1 & 2
D-----------------------------------------------------------------|
A-----------------------------------------------------------------|
F-----------------------------------------------------------------|
C-6---6---6---6---6-6-6-6-6---6---6---6---6---6---6---6---6-------|
G-6---6---6---6---6-6-6-6-6---6---6---6---6---6---6---6---6-------|
C-6---6---6---6---6-6-6-6-6---6---6---6---6---6---6---6---6-------|
Pm.   .   .   .   . . . . .   .   .   .   .   .   .   .   .

==================================================================
==================================================================


Interlude 3

Guitar 1
D-----------------------------------------------------------------|
A-----------------------------------------------------------------|
F-----------------------------------------------------------------|
C-9---9-----------9-9-9-9-9---------------------------------------|
G-9---9-----------9-9-9-9-9---------------------------------------|
C-9---9-----------9-9-9-9-9---------------------------------------|

Guitar 2
D-----------------------------------------------------------------|
A-----------------------------------------------------------------|
F-4---4---4---4---4---6---7---9---9---7---7---6---6---4---2---4---|
C-x---x---x---x---x---x---x---x---x---x---x---x---x---x---x---x---|
G-2---2---2---2---2---4---5---7---7---5---5---4---4---2---0---2---|
C-----------------------------------------------------------------|

==================================================================

Guitar 1
D-----------------------------------------------------------------|
A-----------------------------------------------------------------|
F-----------------------------------------------------------------|
C-8---8-----------8-8-8-8-8---------------------------------------|
G-8---8-----------8-8-8-8-8---------------------------------------|
C-8---8-----------8-8-8-8-8---------------------------------------|

Guitar 2
D-----------------------------------------------------------------|
A-----------------------------------------------------------------|
F-3---3---3---3---3---6---7---9---9---7---7---6---6---6---6---6---|
C-x---x---x---x---x---x---x---x---x---x---x---x---x---x---x---x---|
G-1---1---1---1---1---4---5---7---7---5---5---4---4---4---4---4---|
C-----------------------------------------------------------------|

==================================================================

Guitar 1 & 2
D-----------------------------------------------------------------|
A-----------------------------------------------------------------|
F-----------------------------------------------------------------|
C-7---7---7---7---7---7---7---7---7---7---7---7---7---7---7---7---|
G-7---7---7---7---7---7---7---7---7---7---7---7---7---7---7---7---|
C-7---7---7---7---7---7---7---7---7---7---7---7---7---7---7---7---|
Pm        .   .   .   .   .   .   .   .   .   .   .   .   .   .


Guitar 1 & 2
D-----------------------------------------------------------------|
A-----------------------------------------------------------------|
F-----------------------------------------------------------------|
C-6---6---6---6---6---6---6---6---6---6---6---6---6---6---6-------|
G-6---6---6---6---6---6---6---6---6---6---6---6---6---6---6-------|
C-6---6---6---6---6---6---6---6---6---6---6---6---6---6---6-------|
Pm.   .   .   .   .   .   .

==================================================================
==================================================================


Bridge 2

Guitar 1 & 2
D-----------------------------------------------------------------|
A-----------------------------------------------------------------|
F-----------------------------------------------------------------|
C-9---9-------9---9-------9---9~~~~~~~~~~~~~~~~~~~~~~~~~~~~~~~~~~-|
G-9---9-------9---9-------9---9~~~~~~~~~~~~~~~~~~~~~~~~~~~~~~~~~~-|
C-9---9-------9---9-------9---9~~~~~~~~~~~~~~~~~~~~~~~~~~~~~~~~~~-|

==================================================================
==================================================================


Chorus 3

Guitar 1
D-----------------------------------------------------------------|
A-----------------------------------------------------------------|
F-----------------------------------------------------------------|
C-9---9---9---9---9---9---9---4---4---4---4---4---4---4---4---4---|
G-9---9---9---9---9---9---9---4---4---4---4---4---4---4---4---4---|
C-9---9---9---9---9---9---9---4---4---4---4---4---4---4---4---4---|

Guitar 2 (Wah Effect)
D-10------10-----10-----10-----10-----10-----10-----10-----10-----|
A-12------12-----12-----12-----12-----12-----12-----12-----12-----|
F-11------11-----11-----11-----11-----11-----11-----11-----11-----|
C-9-------9------9------9------9------9------9------9------9------|
G-----------------------------------------------------------------|
C-----------------------------------------------------------------|

==================================================================

Guitar 1
D-----------------------------------------------------------------|
A-----------------------------------------------------------------|
F-7---7---7---7---7---7---7---------------------------------------|
C-7---7---7---7---7---7---7---2---2---2---2---2---2---2---2---2---|
G-5---5---5---5---5---5---5---2---2---2---2---2---2---2---2---2---|
C-----------------------------2---2---2---2---2---2---2---2---2---|

Guitar 2
D-10------10-----10-----10-----10-----10-----10-----10-----10-----|
A-12------12-----12-----12-----12-----12-----12-----12-----12-----|
F-11------11-----11-----11-----11-----11-----11-----11-----11-----|
C-9-------9------9------9------9------9------9------9------9------|
G-----------------------------------------------------------------|
C-----------------------------------------------------------------|

==================================================================

Guitar 1
D-----------------------------------------------------------------|
A-----------------------------------------------------------------|
F-----------------------------------------------------------------|
C-9---9---9---9---9---9---9---4---4---4---4---4---4---4---4---4---|
G-9---9---9---9---9---9---9---4---4---4---4---4---4---4---4---4---|
C-9---9---9---9---9---9---9---4---4---4---4---4---4---4---4---4---|

Guitar 2
D-10------10-----10-----10-----10-----10-----10-----10-----10-----|
A-12------12-----12-----12-----12-----12-----12-----12-----12-----|
F-11------11-----11-----11-----11-----11-----11-----11-----11-----|
C-9-------9------9------9------9------9------9------9------9------|
G-----------------------------------------------------------------|
C-----------------------------------------------------------------|

==================================================================

Guitar 1
D-----------------------------------------------------------------|
A-----------------------------------------------------------------|
F-----------------------------------------------------------------|
C-5---5---5---5---5---5---5---5---5---5---5---5---5---x-x-x-x-x-x-|
G-5---5---5---5---5---5---5---5---5---5---5---5---5---x-x-x-x-x-x-|
C-5---5---5---5---5---5---5---5---5---5---5---5---5---x-x-x-x-x-x-|

Guitar 2
D-10------10-----10-----10-----10-----10-----10-----10-----10-----|
A-12------12-----12-----12-----12-----12-----12-----12-----12-----|
F-11------11-----11-----11-----11-----11-----11-----11-----11-----|
C-9-------9------9------9------9------9------9------9------9------|
G-----------------------------------------------------------------|
C-----------------------------------------------------------------|

==================================================================

Guitar 1
D-----------------------------------------------------------------|
A-----------------------------------------------------------------|
F-----------------------------------------------------------------|
C-9---9---9---9---9---9---9---4---4---4---4---4---4---4---4---4---|
G-9---9---9---9---9---9---9---4---4---4---4---4---4---4---4---4---|
C-9---9---9---9---9---9---9---4---4---4---4---4---4---4---4---4---|

Guitar 2
D-----------------------------------------------------------------|
A-12--12--12--12--12--14--15--17--17--15--15--14--14--12--10--12--|
F-x---x---x---x---x---x---x---x---x---x---x---x---x---x---x---x---|
C-9---9---9---9---9---11--12--14--14--12--12--11--11--9---7---9---|
G-----------------------------------------------------------------|
C-----------------------------------------------------------------|

==================================================================

Guitar 1
D-----------------------------------------------------------------|
A-----------------------------------------------------------------|
F-7---7---7---7---7---7---7---------------------------------------|
C-7---7---7---7---7---7---7---2---2---2---2---2---2---x-x-x-x-x-x-|
G-5---5---5---5---5---5---5---2---2---2---2---2---2---x-x-x-x-x-x-|
C-----------------------------2---2---2---2---2---2---x-x-x-x-x-x-|

Guitar 2
D-----------------------------------------------------------------|
A-12--12--12--12--12--14--15--17--17--15--15--14--14--14--14--14--|
F-x---x---x---x---x---x---x---x---x---x---x---x---x---x---x---x---|
C-9---9---9---9---9---11--12--14--14--12--12--11--11--11--11--11--|
G-----------------------------------------------------------------|
C-----------------------------------------------------------------|

==================================================================

Guitar 1
D-----------------------------------------------------------------|
A-----------------------------------------------------------------|
F-----------------------------------------------------------------|
C-9---9---9---9---9---9---9---4---4---4---4---4---4---4---4---4---|
G-9---9---9---9---9---9---9---4---4---4---4---4---4---4---4---4---|
C-9---9---9---9---9---9---9---4---4---4---4---4---4---4---4---4---|

Guitar 2
D-----------------------------------------------------------------|
A-12--12--12--12--12--14--15--17--17--15--15--14--14--12--10--12--|
F-x---x---x---x---x---x---x---x---x---x---x---x---x---x---x---x---|
C-9---9---9---9---9---11--12--14--14--12--12--11--11--9---7---9---|
G-----------------------------------------------------------------|
C-----------------------------------------------------------------|

==================================================================

Guitar 1
D-----------------------------------------------------------------|
A-----------------------------------------------------------------|
F-----------------------------------------------------------------|
C-5---5---5---5---5---5---5---5---5---5---5---5---5---5---5---5---|
G-5---5---5---5---5---5---5---5---5---5---5---5---5---5---5---5---|
C-5---5---5---5---5---5---5---5---5---5---5---5---5---5---5---5---|

Guitar 2
D-----------------------------------------------------------------|
A-12--12--12--12--12--14--15--17--17--15--15--14--14--14--14--14--|
F-x---x---x---x---x---x---x---x---x---x---x---x---x---x---x---x---|
C-9---9---9---9---9---11--12--14--14--12--12--11--11--11--11--11--|
G-----------------------------------------------------------------|
C-----------------------------------------------------------------|

==================================================================
==================================================================


Outro

Guitar 1 & 2
D-----------------------------------------------------------------|
A-----------------------------------------------------------------|
F-----------------------------------------------------------------|
C-9~~~\~~~--------------------------------------------------------|
G-9~~~\~~~--------------------------------------------------------|
C-9~~~\~~~--------------------------------------------------------|


Tab Legend
h  -  hammer-on
p  -  pull-off
/  -  slide up
\  -  slide down
ps/-  pickslide up
ps\-  pickslide down
~  -  let ring
pm.-  palm mute
b  -  bend
r  -  return from bend
*  -  harmonic
x  -  dead note
^  -  Whammy bar
^\ -  Whammy bar (hold down)

That's all! I hope this tabs has helped you and if you've got any problems be sure to 
check out my cover for some visuals. Thanks, oh and one last thing... ROCK OUT!!!!
Добавлено: 24.09.2013
Другие материалы по этой песне:
  • Аккорды и текст

Страница создана 24.09.2013
http://primanota.ru/the-used/this-fire-chords.htm
Привет, Гость.
Предлагаем пройти революционный курс по гитаре.
Подарок от PrimaNota.Ru, забирай!