PrimaNota.ru - самый крупный в мире бесплатный архив песенных текстов, аккордов, табулатур и нот


The Used - Empty With You - текст песни, таба, видео

Регистрация Запомнить меня
Войти через:  Facebook Google Twitter Vk Yandex Mail.ru

The Used - Empty With You - текст песни, таба, видео

Печатать
Просмотров: 579
Уроки эстрадного вокала в Санкт-Петербурге
Empty With You (Lead & Rythm)

Lead
Intro(x2)/Verse(x4)
e-----------------------------------|
b------2----------------------------|
g----2---2--------2-----------------|
d--4-------2~---2---2--4--0~--------|   
a-----------------------------------|
D-----------------------------------|

Chorus 
e-------------------------------|
b-------------------------------|
g--7------9------11------9------|
d--X-(x8)-X-(x8)-X--(x8)-X-(x8)-|  x3
a--5------7------9-------7------|
D-------------------------------|

e-----------------------|
b-----------------------|
g--14------13------11~--|
d--X--(x8)-X--(x8)-X----|
a--12------11------9~---|
D-----------------------|

Rpt. Verse
Rpt. Chorus (adjust from the transition to pre-bridge)

Pre-Bridge
e-----------------------------------|
b-----------------------------------|
g--11-11-11-11--11-11-11-11----14~--|
d--X--X--X--X---X--X--X--X-----X----|
a--9--9--9--9---9--9--9--9-----12~--|
D-----------------------------------|

Bridge
e-----------------------------------------|
b-----------------------------------------|
g-----------------------------------------|
d--44444444-22222222-0000000000000000-----| X2
a--44444444-22222222-0000000000000000-----|
D--44444444-22222222-0000000000000000-----|
PM...................................

e-----------------------------------------|
b-----------------------------------------|
g-----------------------------------------|
d-----------------------------------------| X2
a-----------------------------------------|
D--44444444-22222222-0000000000000000-----|

e---------------------------------------|
b---------------------------------------|
g---------------------------------------|
d--44444444444444444444444444444444-----| 
a--44444444444444444444444444444444-----|
D--44444444444444444444444444444444-----|
(PM with gradual release)
Rpt. Chorus

End
e-----------------------|
b-----------------------|
g-----------------------|
d--4--4--4--4----4s0----|
a--4--4--4--4----4s0----|
D--4--4--4--4----4s0----|
----------------------------------------------------------------------------Rythm:
Intro(x2)/Verse1(x4)
e--9----|
b--7----|
g--0----|
d--7----|
a-------|
D-------|

Chorus
e-------------------------------|
b-------------------------------|
g-------------------------------|
d--0------2------4------2-------|  x3
a--0-(x8)-2-(x8)-4-(x8)-2-(x8)--|
D--0------2------4------2-------|

e---------------------|
b---------------------|
g---------------------|
d--0------2------4~---|
a--0-(x8)-2-(x8)-4~---|
D--0------2------4~---|


Verse2 (with tremolo & distortion)
e-------------------|
b------2~-----------|
g----2-------2------|
d--4-------2---2~---|  X4
a-------------------|
D-------------------|

Rpt. Chorus (adjust from the transition to pre-bridge)

Pre-Bridge
e----------------------------------|
b----------------------------------|
g----------------------------------|
d--4--4--4--4----4--4--4--4----4~--|
a--4--4--4--4----4--4--4--4----4~--|
D--4--4--4--4----4--4--4--4----4~--|

Bridge
Rpt. Chorus
End
Добавлено: 25.07.2012
Другие материалы по этой песне:
  • Аккорды и текст

Страница создана 15.04.2012
http://primanota.ru/the-used/empty-with-you-chords.htm
Привет, Гость.
Предлагаем пройти революционный курс по гитаре.
Подарок от PrimaNota.Ru, забирай!