PrimaNota.ru - самый крупный в мире бесплатный архив песенных текстов, аккордов, табулатур и нот


The Used - Put Me Out - текст песни, таба, видео

Регистрация Запомнить меня
Войти через:  Facebook Google Twitter Vk Yandex Mail.ru

The Used - Put Me Out - текст песни, таба, видео

Печатать
Просмотров: 199
Tabbed By Ear By ME!
PhlippinPhenomenal



#p# = Pull-Off
#h# = Hammer On
|P.H.| = Pinch Harmonic
#\# = Slide Down To
#/# = Slide Up To
pm - = Palm Mute
x = Muted String



Intro Riff(x4)                                          |P.H.|
e|---------------------------------------------------------------------------|
b|---------------------------------------------------------------------------|
g|--------------------------------------------5p0-----5p0-7------------------|
d|3p0---------5p0---------3p0-5p0-7p0-0-5h7-0-----7p0------------------------|
a|----5p0-3p0-----3p0-5p0----------------------------------------------------|
D|---------------------------------------------------------------------------|

Verse (Mainly Bass)


Pre-Chorus
e|---------------------------------------------------------------------------|
b|---------------------------------------------------------------------------|
g|---------------------------------------------------------------------------|
d|0000000000000-3333333333333-5555555555555-8888888\777777777----------------|
a|0000000000000-3333333333333-5555555555555-8888888\777777777----------------|
D|0000000000000-3333333333333-5555555555555-8888888\777777777----------------|
pm ---- ---- --  ---- ---- --  ---- ---- --  ---- - ---------

(Continued)
e|---------------------------------------------------------------------------|
b|---------------------------------------------------------------------------|
g|---------------------------------------------------------------------------|
d|0000000000000-3333333333333-5555555555555-666666-666-666-------------------|
a|0000000000000-3333333333333-5555555555555-444444-444-444-------------------|
D|0000000000000-3333333333333-5555555555555----------------------------------|
pm ---- ---- --  ---- ---- --  ---- ---- --  ----

Chorus
e|---------------------------------------------------------------------------|
b|----------------------------------------------xxxxxx-----------------------|
g|----------------------------------------------xxxxxx-----------------------|
d|0-00-0-00-0-3-33-3-33-3-5-55-5-55-5-5-55-5-55-xxxxxx-----------------------|
a|0-00-0-00-0-3-33-3-33-3-3-33-3-33-3-5-55-5-55-xxxxxx-----------------------|
D|0-00-0-00-0-3-33-3-33-3-------------5-55-5-55-xxxxxx-----------------------|

(Continued)
e|---------------------------------------------------------------------------|
b|----------------------------------------------xxxxxx-----------------------|
g|----------------------------------------------xxxxxx-----------------------|
d|0-00-0-00-0-3-33-3-33-3-5-55-5-55-5-5-55-5-55-xxxxxx-----------------------|
a|0-00-0-00-0-3-33-3-33-3-3-33-3-33-3-2-22-2-22-xxxxxx-----------------------|
D|0-00-0-00-0-3-33-3-33-3-----------------------xxxxxx-----------------------|

Intro Riff (Only Once)

Verse

Pre-Chorus

Chorus

Bridge
e|----___(x4)___--------___(x4___--------------------|
b|--/------------\----/-----------\------------------| \
g|-|--------------|--|-------------|-----------------|  \Whole Thing
d|-19p17p0-15h17p0---20p17p0-15h17p0-----------------|  /  4 Times
a|---------------------------------------------------| /
D|---------------------------------------------------|
(Continued)
e|---___(x5___------------|
b|-/-----------\----------|
g||-------------|---------|
d|20p17p0-15h17p0-20------|
d|------------------12/0--|
a|------------------12/0--|
D|------------------12/0--|                             End With    End With
                                                      This First   This Last
(Continued)(Ten)(Elevens)                              3 Times       Time
e|-----------||----||-----------------|\             |----------| |---------|
b|-----------||----||-----------------| \            |----------| |---------|
g|-----------\/----\/-----------------|  \Whole Thing|----------| |---xxxxxx|
d|-2-3-5/8-7-10-10-11h12\0---2-3-5/8-7|  /  4 Times  |-1-1h3-0-7| |-1-xxxxxx|
a|-2-3-5/8-7-10-10-11h12\0---2-3-5/8-7| /            |-1-1h3-0-5| |-1-xxxxxx|
D|-2-3-5/8-7-10-10-11h12\0---2-3-5/8-7|/             |-1-1h3-0--| |-1-xxxxxx|

(Continued)
e|---------------------------------------------------------------------------|
b|------------------------------------xxxxxx---------------------------------|
g|------------------------------------xxxxxx---------------------------------|
d|--------------5-55-5-55-5-5-55-5-55-xxxxxx---------------------------------|
a|--------------3-33-3-33-3-5-55-5-55-xxxxxx---------------------------------|
D|--------------------------5-55-5-55-xxxxxx---------------------------------|

(Continued)
e|---------------------------------------------------------------------------|
b|----------------------------------------------xxxxxx-----------------------|
g|----------------------------------------------xxxxxx-----------------------|
d|0-00-0-00-0-3-33-3-33-3-5-55-5-55-5-5-55-5-55-xxxxxx-----------------------|
a|0-00-0-00-0-3-33-3-33-3-3-33-3-33-3-2-22-2-22-xxxxxx-----------------------|
D|0-00-0-00-0-3-33-3-33-3-----------------------xxxxxx-----------------------|

Final Chorus
e|---------------------------------------------------------------------------|
b|-----------------------------------xxxxxx----------------------------------|
g|-----------------------------------xxxxxx----------------------------------|
d|00000000-33333333-55555555-5555555-xxxxxx----------------------------------|
a|00000000-33333333-33333333-5555555-xxxxxx----------------------------------|
D|00000000-33333333----------5555555-xxxxxx----------------------------------|

(Continued)
e|---------------------------------------------------------------------------|
b|-------------------------------------xxxxxx--------------------------------|
g|-------------------------------------xxxxxx--------------------------------|
d|00000000-33333333-55555555--55555555-xxxxxx--------------------------------|
a|00000000-33333333-33333333--22222222-xxxxxx--------------------------------|
D|00000000-33333333--------------------xxxxxx--------------------------------|

Intro Riff(x2)

Outro
e|10--|\
b|15--| \
g|----|  \Whole Thing
d|----|  / 16 Times
a|----| /
D|---0|/

THE END!
Добавлено: 25.09.2013
Другие материалы по этой песне:
  • Аккорды и текст

Страница создана 25.09.2013
http://primanota.ru/the-used/put-me-out-chords.htm
Привет, Гость.
Предлагаем пройти революционный курс по гитаре.
Подарок от PrimaNota.Ru, забирай!