PrimaNota.ru - самый крупный в мире бесплатный архив песенных текстов, аккордов, табулатур и нот


The Devil Wears Prada - Chicago - текст песни, таба, видео

Регистрация Запомнить меня
Войти через:  Facebook Google Twitter Vk Yandex Mail.ru

The Devil Wears Prada - Chicago - текст песни, таба, видео

Печатать
Просмотров: 157
Song: Chicago
Artist: The Devil Wears Prada
Album: Dead Throne
Year: 2011
Tuning: Drop B


This song is in 6/4 so be careful of that when reading this tab



GUITAR 1

Clean Channel

Intro:
C#||----------------------------------------|
G#||----------------------------------------|
E ||---------------------9----(9)----(9)----|
B ||--7----(7)----(7)-----------------------|
F#||----------------------------------------|
B ||----------------------------------------|


----------------------------------------|
----------------------------------------|
---------------------9----(9)----(9)----|
--7----(7)----(7)-----------------------|
----------------------------------------|
----------------------------------------|


-------------------------------------------|
-------------------------------------------|
---------------------12----(12)----(12)----|
--7----(7)----(7)--------------------------|
-------------------------------------------|
-------------------------------------------|



-------------------------------------------|
---------------------10----(10)----(10)----|
-------------------------------------------|
--7----(7)----(7)--------------------------|
-------------------------------------------|
-------------------------------------------|


----------------------------------------|
---------------------5----(5)----(5)----|
----------------------------------------|
--3----(3)----(3)-----------------------|
----------------------------------------|
----------------------------------------|


----------------------------------------|
----------------------------------------|
---------------------5----(5)----(5)----|
--3----(3)----(3)-----------------------|
----------------------------------------|
----------------------------------------|


----------------------------------------|
----------------------------------------|
---------------------7----(7)----(7)----|
--0----(0)----(0)-----------------------|
----------------------------------------|
----------------------------------------|



[Drums Start]
----------------------------------------|
----------------------------------------|
---------------------5----(5)----(5)----|
--0----(0)----(0)-----------------------|
----------------------------------------|
----------------------------------------|


----------------------------------------|
----------------------------------------|
---------------------9----(9)----(9)----|
--7----(7)----(7)-----------------------|
----------------------------------------|
----------------------------------------|


----------------------------------------|
----------------------------------------|
---------------------9----(9)----(9)----|
--7----(7)----(7)-----------------------|
----------------------------------------|
----------------------------------------|

      
-------------------------------------------|
-------------------------------------------|
---------------------12----(12)----(12)----|
--7----(7)----(7)--------------------------|
-------------------------------------------|
-------------------------------------------|


-------------------------------------------|
---------------------10----(10)----(10)----|
-------------------------------------------|
--7----(7)----(7)--------------------------|
-------------------------------------------|
-------------------------------------------|


----------------------------------------|
---------------------5----(5)----(5)----|
----------------------------------------|
--3----(3)----(3)-----------------------|
----------------------------------------|
----------------------------------------|


----------------------------------------|
----------------------------------------|
---------------------5----(5)----(5)----|
--3----(3)----(3)-----------------------|
----------------------------------------|
----------------------------------------|


----------------------------------------|
----------------------------------------|
---------------------7----(7)----(7)----|
--0----(0)----(0)-----------------------|
----------------------------------------|
----------------------------------------|


----------------------------------------|
----------------------------------------|
---------------------5----(5)----(5)----|
--0----(0)----(0)-----------------------|
----------------------------------------|
----------------------------------------|


----------------------------------------|
----------------------------------------|
---------------------9----(9)----(9)----|
--7----(7)----(7)-----------------------|
----------------------------------------|
----------------------------------------|


----------------------------------------|
----------------------------------------|
---------------------9----(9)----(9)----|
--7----(7)----(7)-----------------------|
----------------------------------------|
----------------------------------------|


-------------------------------------------|
-------------------------------------------|
---------------------12----(12)----(12)----|
--7----(7)----(7)--------------------------|
-------------------------------------------|
-------------------------------------------|


-------------------------------------------|
---------------------10----(10)----(10)----|
-------------------------------------------|
--7----(7)----(7)--------------------------|
-------------------------------------------|
-------------------------------------------|


----------------------------------------|
---------------------5----(5)----(5)----|
----------------------------------------|
--3----(3)----(3)-----------------------|
----------------------------------------|
----------------------------------------|


----------------------------------------|
----------------------------------------|
---------------------5----(5)----(5)----|
--3----(3)----(3)-----------------------|
----------------------------------------|
----------------------------------------|


----------------------------------------|
----------------------------------------|
---------------------7----(7)----(7)----|
--0----(0)----(0)-----------------------|
----------------------------------------|
----------------------------------------|






----------------------------------------|----------------------------------|
----------------------------------------|----------------------------------|
---------------------5----(5)----(5)----|---------------9----(9)----(9)----|
--0----(0)----(0)-----------------------|----------------------------------|
----------------------------------------|----------------------------------|
----------------------------------------|----------------------------------|


----------------------------------------|
----------------------------------------|
---------------------9----(9)----(9)----|
--7----(7)----(7)-----------------------|
----------------------------------------|
----------------------------------------|


-------------------------------------------|
-------------------------------------------|
---------------------12----(12)----(12)----|
--7----(7)----(7)--------------------------|
-------------------------------------------|
-------------------------------------------|


-------------------------------------------|
---------------------10----(10)----(10)----|
-------------------------------------------|
--7----(7)----(7)--------------------------|
-------------------------------------------|
-------------------------------------------|

      
----------------------------------------|
---------------------5----(5)----(5)----|
----------------------------------------|
--3----(3)----(3)-----------------------|
----------------------------------------|
----------------------------------------|


----------------------------------------|
----------------------------------------|
---------------------5----(5)----(5)----|
--3----(3)----(3)-----------------------|
----------------------------------------|
----------------------------------------|


----------------------------------------|
----------------------------------------|
---------------------7----(7)----(7)----|
--0----(0)----(0)-----------------------|
----------------------------------------|
----------------------------------------|





                                         [Distortion Channel]
						 Chorus:
----------------------------------------|--------------------------------------|
----------------------------------------|--------------6--6--5--5--5--5--5--5--|
---------------------5----(5)----(5)----|--2--2--2--2--------------------------|
--0----(0)----(0)-----------------------|--------------------------------------|
----------------------------------------|--------------------------------------|
----------------------------------------|--------------------------------------|


--------------------------------------|--------------------------------------|
--------------6--6--5--5--------------|--------------6--6--5--5--5--5--5--5--|
--2--2--2--2--------------4--4--5--5--|--2--2--2--2--------------------------|
--------------------------------------|--------------------------------------|
--------------------------------------|--------------------------------------|
--------------------------------------|--------------------------------------|


--------------------------------------|--------------------------------------|
--------------6--6--5--5--------------|--------------6--6--5--5--5--5--5--5--|
--2--2--2--2--------------5--5--4--4--|--1--1--1--1--------------------------|
--------------------------------------|--------------------------------------|
--------------------------------------|--------------------------------------|
--------------------------------------|--------------------------------------|


--------------------------------------|--------------------------------------|
--------------6--6--5--5--------------|--------------6--6--5--5--5--5--5--5--|
--1--1--1--1--------------4--4--5--5--|--1--1--1--1--------------------------|
--------------------------------------|--------------------------------------|
--------------------------------------|--------------------------------------|
--------------------------------------|--------------------------------------|

   
--------------------------------------|--------------------------------------|
--------------6--6--5--5--------------|--------------6--6--5--5--5--5--5--5--|
--1--1--1--1--------------5--5--4--4--|--2--2--2--2--------------------------|
--------------------------------------|--------------------------------------|
--------------------------------------|--------------------------------------|
--------------------------------------|--------------------------------------|

   
--------------------------------------|--------------------------------------|
--------------6--6--5--5--------------|--------------6--6--5--5--5--5--5--5--|
--2--2--2--2--------------4--4--5--5--|--2--2--2--2--------------------------|
--------------------------------------|--------------------------------------|
--------------------------------------|--------------------------------------|
--------------------------------------|--------------------------------------|


--------------------------------------|--------------------------------------|
--------------6--6--5--5--------------|--------------6--6--5--5--5--5--5--5--|
--2--2--2--2--------------5--5--4--4--|--1--1--1--1--------------------------|
--------------------------------------|--------------------------------------|
--------------------------------------|--------------------------------------|
--------------------------------------|--------------------------------------|


--------------------------------------|--------------------------------------|
--------------6--6--5--5--------------|--------------6--6--5--5--5--5--5--5--|
--1--1--1--1--------------4--4--5--5--|--1--1--1--1--------------------------|
--------------------------------------|--------------------------------------|
--------------------------------------|--------------------------------------|
--------------------------------------|--------------------------------------|





           [Clean Channel]
   Outro:
--------------------------------------|----------------------------------------|
--------------6--6--5--5--------------|----------------------------------------|
--1--1--1--1--------------5--5--4--4--|---------------------9----(9)----(9)----|
--------------------------------------|--7----(7)----(7)-----------------------|
--------------------------------------|----------------------------------------|
--------------------------------------|----------------------------------------|


----------------------------------------|
----------------------------------------|
---------------------9----(9)----(9)----|
--7----(7)----(7)-----------------------|
----------------------------------------|
----------------------------------------|


-------------------------------------------|
-------------------------------------------|
---------------------12----(12)----(12)----|
--7----(7)----(7)--------------------------|
-------------------------------------------|
-------------------------------------------|

      
-------------------------------------------|
---------------------10----(10)----(10)----|
-------------------------------------------|
--7----(7)----(7)--------------------------|
-------------------------------------------|
-------------------------------------------|


----------------------------------------|
----------------------------------------|
---------------------9----(9)----(9)----|
--7----(7)----(7)-----------------------|
----------------------------------------|
----------------------------------------|

      
----------------------------------------|
----------------------------------------|
---------------------9----(9)----(9)----|
--7----(7)----(7)-----------------------|
----------------------------------------|
----------------------------------------|


-------------------------------------------|
-------------------------------------------|
---------------------12----(12)----(12)----|
--7----(7)----(7)--------------------------|
-------------------------------------------|
-------------------------------------------|


-------------------------------------------|
---------------------10----(10)----(10)----|
-------------------------------------------|
--7----(7)----(7)--------------------------|
-------------------------------------------|
-------------------------------------------|


----------------------------------------|
----------------------------------------|
---------------------9----(9)----(9)----|
--7----(7)----(7)-----------------------|
----------------------------------------|
----------------------------------------|


----------------------------------------|
----------------------------------------|
---------------------9----(9)----(9)----|
--7----(7)----(7)-----------------------|
----------------------------------------|
----------------------------------------|


-------------------------------------------|
-------------------------------------------|
---------------------12----(12)----(12)----|
--7----(7)----(7)--------------------------|
-------------------------------------------|
-------------------------------------------|


-------------------------------------------|
---------------------10----(10)----(10)----|
-------------------------------------------|
--7----(7)----(7)--------------------------|
-------------------------------------------|
-------------------------------------------|


----------------------------------------|
----------------------------------------|
---------------------9----(9)----(9)----|
--7----(7)----(7)-----------------------|
----------------------------------------|
----------------------------------------|

      
----------------------------------------|
----------------------------------------|
---------------------9----(9)----(9)----|
--7----(7)----(7)-----------------------|
----------------------------------------|
----------------------------------------|

      
-------------------------------------------|
-------------------------------------------|
---------------------12----(12)----(12)----|
--7----(7)----(7)--------------------------|
-------------------------------------------|
-------------------------------------------|


-------------------------------------------|---------------------------------|
---------------------10----(10)----(10)----|---------------------------------|
-------------------------------------------|---------------------------------|
--7----(7)----(7)--------------------------|--7----(7)----(7)----------------|
-------------------------------------------|---------------------------------|
-------------------------------------------|---------------------------------|







GUITAR 2





[Starts at 0:19]
-------------------|-------------------|-------------------|-------------------|
-------------------|-------------------|-------------------|-------------------|
-------------------|-------------------|-------------------|-------------------|
-------------------|-------------------|-------------------|-------------------|
--7----------------|-------------------|--7----------------|-------------------|
--7----------------|-------------------|--7----------------|-------------------|


-------------------|-------------------|-------------------|-------------------|
-------------------|-------------------|-------------------|-------------------|
-------------------|-------------------|-------------------|-------------------|
-------------------|-------------------|-------------------|-------------------|
--3----------------|-------------------|--0----------------|-------------------|
--3----------------|-------------------|--0----------------|-------------------|

                
-------------------|-------------------|-------------------|-------------------|
-------------------|-------------------|-------------------|-------------------|
-------------------|-------------------|-------------------|-------------------|
-------------------|-------------------|-------------------|-------------------|
--7----------------|-------------------|--7----------------|-------------------|
--7----------------|-------------------|--7----------------|-------------------|

.                
-------------------|-------------------|-------------------|-------------------|
-------------------|-------------------|-------------------|-------------------|
-------------------|-------------------|-------------------|-------------------|
-------------------|-------------------|-------------------|-------------------|
--3----------------|-------------------|--0----------------|-------------------|
--3----------------|-------------------|--0----------------|-------------------|

        



        
----------------------------|-------------------|-------------------|
----------------------------|-------------------|-------------------|
----------------------------|-------------------|-------------------|
----------------------------|-------------------|-------------------|
---------------7------------|-------------------|-------------------|
---------------7------------|-------------------|-------------------|

                
-------------------|-------------------|-------------------|-------------------|
-------------------|-------------------|-------------------|-------------------|
-------------------|-------------------|-------------------|-------------------|
-------------------|-------------------|-------------------|-------------------|
-------------------|--3----------------|-------------------|--0----------------|
-------------------|--3----------------|-------------------|--0----------------|





	Chorus:
------------------------------|--------------------------------------|
------------------------------|--------------------------------------|
------------------------------|--------------------------------------|
------------------------------|--------------------------------------|
---------------7-------\------|--7--7--7--7--7--7--7--7--7--7--7--7--|
---------------7-------\------|--7--7--7--7--7--7--7--7--7--7--7--7--|


--------------------------------------|--------------------------------------|
--------------------------------------|--------------------------------------|
--------------------------------------|--------------------------------------|
--------------------------------------|--------------------------------------|
--7--7--7--7--7--7--7--7--7--7--7--7--|--7--7--7--7--7--7--7--7--7--7--7--7--|
--7--7--7--7--7--7--7--7--7--7--7--7--|--7--7--7--7--7--7--7--7--7--7--7--7--|


--------------------------------------|--------------------------------------|
--------------------------------------|--------------------------------------|
--------------------------------------|--------------------------------------|
--------------------------------------|--------------------------------------|
--7--7--7--7--7--7--7--7--7--7--7--7--|--0--0--0--0--0--0--0--0--0--0--0--0--|
--7--7--7--7--7--7--7--7--7--7--7--7--|--0--0--0--0--0--0--0--0--0--0--0--0--|


--------------------------------------|--------------------------------------|
--------------------------------------|--------------------------------------|
--------------------------------------|--------------------------------------|
--------------------------------------|--------------------------------------|
--0--0--0--0--0--0--0--0--0--0--0--0--|--0--0--0--0--0--0--0--0--0--0--0--0--|
--0--0--0--0--0--0--0--0--0--0--0--0--|--0--0--0--0--0--0--0--0--0--0--0--0--|


--------------------------------------|--------------------------------------|
--------------------------------------|--------------------------------------|
--------------------------------------|--------------------------------------|
--------------------------------------|--------------------------------------|
--0--0--0--0--0--0--0--0--0--0--0--0--|--7--7--7--7--7--7--7--7--7--7--7--7--|
--0--0--0--0--0--0--0--0--0--0--0--0--|--7--7--7--7--7--7--7--7--7--7--7--7--|


--------------------------------------|--------------------------------------|
--------------------------------------|--------------------------------------|
--------------------------------------|--------------------------------------|
--------------------------------------|--------------------------------------|
--7--7--7--7--7--7--7--7--7--7--7--7--|--7--7--7--7--7--7--7--7--7--7--7--7--|
--7--7--7--7--7--7--7--7--7--7--7--7--|--7--7--7--7--7--7--7--7--7--7--7--7--|


--------------------------------------|--------------------------------------|
--------------------------------------|--------------------------------------|
--------------------------------------|--------------------------------------|
--------------------------------------|--------------------------------------|
--7--7--7--7--7--7--7--7--7--7--7--7--|--0--0--0--0--0--0--0--0--0--0--0--0--|
--7--7--7--7--7--7--7--7--7--7--7--7--|--0--0--0--0--0--0--0--0--0--0--0--0--|


--------------------------------------|--------------------------------------|
--------------------------------------|--------------------------------------|
--------------------------------------|--------------------------------------|
--------------------------------------|--------------------------------------|
--0--0--0--0--0--0--0--0--0--0--0--0--|--0--0--0--0--0--0--0--0--0--0--0--0--|
--0--0--0--0--0--0--0--0--0--0--0--0--|--0--0--0--0--0--0--0--0--0--0--0--0--|





   Outro:
--------------------------------------|-------------------|-------------------|
--------------------------------------|-------------------|-------------------|
--------------------------------------|-------------------|-------------------|
--------------------------------------|-------------------|-------------------|
--0--0--0--0--0--0--0--0--0--0--0--0--|--7----------------|-------------------|
--0--0--0--0--0--0--0--0--0--0--0--0--|--7----------------|-------------------|





GUITAR 3/EXTRA GUITAR






[Starts at 0:23]
----------------------7------|--8----------------|-------|
-----------------------------|-------------------|-------|
-----------------------------|-------------------|-------|
-----------------------------|-------------------|-------|
-----------------------------|-------------------|-------|
-----------------------------|-------------------|-------|

      
--12----(12)----(12)----(12)----(12)----(12)----|
------------------------------------------------|
------------------------------------------------|
------------------------------------------------|
------------------------------------------------|
------------------------------------------------|


----------------------10----(10)--|--5----(5)----(5)----(5)----(5)----(5)----|
----------------------------------|------------------------------------------|
----------------------------------|------------------------------------------|
----------------------------------|------------------------------------------|
----------------------------------|------------------------------------------|
----------------------------------|------------------------------------------|


--8----(8)----(8)----(7)----(7)----(7)----|
------------------------------------------|
------------------------------------------|
------------------------------------------|
------------------------------------------|
------------------------------------------|

      
--5----(5)----(5)----(5)----(5)----(5)----|----------------------7------|
------------------------------------------|-----------------------------|
------------------------------------------|-----------------------------|
------------------------------------------|-----------------------------|
------------------------------------------|-----------------------------|
------------------------------------------|-----------------------------|


--8----------------|-------|--12----(12)----(12)----(12)----(12)----(12)----|
-------------------|-------|------------------------------------------------|
-------------------|-------|------------------------------------------------|
-------------------|-------|------------------------------------------------|
-------------------|-------|------------------------------------------------|
-------------------|-------|------------------------------------------------|

      
----------------------10----(10)--|--5----(5)----(5)----(5)----(5)----(5)----|
----------------------------------|------------------------------------------|
----------------------------------|------------------------------------------|
----------------------------------|------------------------------------------|
----------------------------------|------------------------------------------|
----------------------------------|------------------------------------------|







--8----(8)----(8)----(7)----(7)----(7)----|---------------5--5--5--5--5--5--|
------------------------------------------|---------------------------------|
------------------------------------------|---------------------------------|
------------------------------------------|---------------------------------|
------------------------------------------|---------------------------------|
------------------------------------------|---------------------------------|


--5--5--5--5--5--5--5--5--5--7--7--7--|--8--8--8--8--8--8--8--8--8--8--8--8--|
--------------------------------------|--------------------------------------|
--------------------------------------|--------------------------------------|
--------------------------------------|--------------------------------------|
--------------------------------------|--------------------------------------|
--------------------------------------|--------------------------------------|


--8--8--8--8--8--8--8--8--8--8--8--8--|
--------------------------------------|
--------------------------------------|
--------------------------------------|
--------------------------------------|
--------------------------------------|


--12--12--12--12--12--12--12--12--12--12--12--12--|
--------------------------------------------------|
--------------------------------------------------|
--------------------------------------------------|
--------------------------------------------------|
--------------------------------------------------|


--12--12--12--12--12--12--10--10--10--10--10--10--|
--------------------------------------------------|
--------------------------------------------------|
--------------------------------------------------|
--------------------------------------------------|
--------------------------------------------------|

   
--5--5--5--5--5--5--5--5--5--5--5--5--|--8--8--8--8--8--8--7--7--7--7--7--7--|
--------------------------------------|--------------------------------------|
--------------------------------------|--------------------------------------|
--------------------------------------|--------------------------------------|
--------------------------------------|--------------------------------------|
--------------------------------------|--------------------------------------|







Tablature Legend
----------------
PM – Palm Mute
( ) – Ghost Note
L - tied note
x - dead note
g - grace note
> - accentuded note
NH - natural harmonic
PH - pitch harmonic
h - hammer on
p - pull off
b - bend
br - bendRelease
pb - preBend

Добавлено: 07.11.2013
Другие материалы по этой песне:
  • Аккорды и текст

Страница создана 07.11.2013
http://primanota.ru/the-devil-wears-prada/chicago-chords.htm
Привет, Гость.
Предлагаем пройти революционный курс по гитаре.
Подарок от PrimaNota.Ru, забирай!