PrimaNota.ru - самый крупный в мире бесплатный архив песенных текстов, аккордов, табулатур и нот


The Devil Wears Prada - Constance - таба, видео

Регистрация Запомнить меня
Войти через:  Facebook Google Twitter Vk Yandex Mail.ru

The Devil Wears Prada - Constance - таба, видео

Печатать
Просмотров: 69
Song: Constance
Artist: The Devil Wears Prada
Album: Dead Throne
Year: 2011
Tuning: Drop B



GUITAR 1




Intro:
         PM PM PM     PM    PM PM PM PM       PM PM PM     PM PM PM PM PM      
C#||------------------------------------|-------------------------------------|
G#||------------------------------------|-------------------------------------|
E ||------------------------------------|-------------------------------------|
B ||------------------------------------|-------------------------------------|
F#||--5---------------------0--0--0--0--|-----0--0--0------0--0--0--0--0------|
B ||-----0--0--0--8---0-----0--0--0--0--|-----0--0--0--1---0--0--0--0--0--1---|


     PM PM PM                                                                      
----------------------------------|-------------------------------------------|
----------------------------------|-------------------------------------------|
----------------------------------|-------------------------------------------|
----------------------------------|-------------------------------------------|
--5-----------------------8-8-8-8-|----------10-10-10-10----------------------|
-----0--0--0--8---5-5-5-5---------|--8-8-8-8-------------10-10-10-10-12-10\---|


     PM PM PM     PM    PM PM PM PM       PM PM PM     PM PM PM PM PM      
------------------------------------|-------------------------------------|
------------------------------------|-------------------------------------|
------------------------------------|-------------------------------------|
------------------------------------|-------------------------------------|
--5---------------------0--0--0--0--|-----0--0--0------0--0--0--0--0------|
-----0--0--0--8---0-----0--0--0--0--|-----0--0--0--1---0--0--0--0--0--1---|


     PM PM PM                                                                  
----------------------------------|-------------------------------------------|
----------------------------------|-------------------------------------------|
----------------------------------|-------------------------------------------|
----------------------------------|-------------------------------------------|
--5-----------------------8-8-8-8-|----------10-10-10-10----------------------|
-----0--0--0--8---5-5-5-5---------|--8-8-8-8-------------10-10-10-10-12-10\---|


     PM PM PM     PM    PM PM PM PM       PM PM PM     PM PM PM PM PM      
------------------------------------|-------------------------------------|
------------------------------------|-------------------------------------|
------------------------------------|-------------------------------------|
------------------------------------|-------------------------------------|
--5---------------------0--0--0--0--|-----0--0--0------0--0--0--0--0------|
-----0--0--0--8---0-----0--0--0--0--|-----0--0--0--1---0--0--0--0--0--1---|


     PM PM PM                                                                      
----------------------------------|-------------------------------------------|
----------------------------------|-------------------------------------------|
----------------------------------|-------------------------------------------|
----------------------------------|-------------------------------------------|
--5-----------------------8-8-8-8-|----------10-10-10-10----------------------|
-----0--0--0--8---5-5-5-5---------|--8-8-8-8-------------10-10-10-10-12-10\---|


     PM PM PM     PM    PM PM PM PM       PM PM PM     PM PM PM PM PM      
------------------------------------|-------------------------------------|
------------------------------------|-------------------------------------|
------------------------------------|-------------------------------------|
------------------------------------|-------------------------------------|
--5---------------------0--0--0--0--|-----0--0--0------0--0--0--0--0------|
-----0--0--0--8---0-----0--0--0--0--|-----0--0--0--1---0--0--0--0--0--1---|


     PM PM PM                                                                  
----------------------------------|-------------------------------------------|
----------------------------------|-------------------------------------------|
----------------------------------|-------------------------------------------|
----------------------------------|-------------------------------------------|
--5-----------------------8-8-8-8-|----------10-10-10-10----------------------|
-----0--0--0--8---5-5-5-5---------|--8-8-8-8-------------10-10-10-10-12-10\---|


                                  PM PM PM PM            
-------------------|-------------------------------|
-------------------|-------------------------------|
-------------------|-------------------------------|
-------------------|-------------------------------|
--0----------------|--0-3---0-2---0--0--0--0-------|
--0----------------|--0-3---0-2---0--0--0--0-------|





Verse 1:
--------------10-----10-----|--10-----10-----10-----10-----|
--8-----8-------------------|------------------------------|
-----8-----8------8------8--|------8------8------8------8--|
----------------------------|------------------------------|
----------------------------|------------------------------|
----------------------------|------------------------------|


--------------10-----10-----|--10-10-10-10-10-10-10-10-10-10-10-10-10-10-10-10-|
--8-----8-------------------|--------------------------------------------------|
-----8-----8------8------8--|--------------------------------------------------|
----------------------------|--------------------------------------------------|
----------------------------|--------------------------------------------------|
----------------------------|--------------------------------------------------|


--------------10-----10-----|--10-----10-----10-----10-----|
--8-----8-------------------|------------------------------|
-----8-----8------8------8--|------8------8------8------8--|
----------------------------|------------------------------|
----------------------------|------------------------------|
----------------------------|------------------------------|


--------------10-----10-----|--10-10-10-10-10-10-10-10-10-10-10-10-10-10-10-10-|
--8-----8-------------------|--------------------------------------------------|
-----8-----8------8------8--|--------------------------------------------------|
----------------------------|--------------------------------------------------|
----------------------------|--------------------------------------------------|
----------------------------|--------------------------------------------------|


--10-10-10-10-10-10-10-10-10-10-10-10-10-10-10-10-|
--------------------------------------------------|
--------------------------------------------------|
--------------------------------------------------|
--------------------------------------------------|
--------------------------------------------------|





Verse 2:
  PM PM PM      PM PM PM          PM PM PM                          
-------------------------------|--------------------------------|
-------------------------------|--------------------------------|
-------------------------------|--------------------------------|
-------------------------------|--------------------------------|
--0--0--0-------0--0--0--------|--0--0--0-----------------------|
--0--0--0-------0--0--0--3b----|--0--0--0--0-1-0------2s-5---5s-|


                               PM PM PM                          
----------------------------|--------------------------------|
----------------------------|--------------------------------|
----------------------------|--------------------------------|
----------------------------|--------------------------------|
----------------------------|--0--0--0-----------------------|
--4---4s-7---7s-5---5s-4----|--0--0--0--0-1-0------2s-5---5s-|


                           PM PM PM                       
------------------------|--------------------------------|
------------------------|--------------------------------|
------------------------|--------------------------------|
------------------------|--------------------------------|
------------------------|--0--0--0-----------------------|
--4---4s-1----0---------|--0--0--0--0-1-0------2s-5---5s-|


                               PM PM PM                       
----------------------------|--------------------------------|
----------------------------|--------------------------------|
----------------------------|--------------------------------|
----------------------------|--------------------------------|
----------------------------|--0--0--0-----------------------|
--4---4s-7---7s-5---5s-4----|--0--0--0--0-1-0------2s-5---5s-|





	Pre Chorus:
                   PM PM PM PM                             
-------------------------------|--------------------------|
-------------------------------|--------------------------|
-------------------------------|--7--7--7--7--7--5--5--5--|
-------------------------------|--------------------------|
-------------------0--0--0--0--|--------------------------|
--4---4s-1----0----0--0--0--0--|--------------------------|





	Chorus:
--------------------------|--------------------------|
--------------------------|--------------------------|
--5--2--2--2--2-----------|--7--7--7--7--7--5--5--5--|
-----------------3--3--3--|--------------------------|
--------------------------|--------------------------|
--------------------------|--------------------------|


--------------------------|--------------------------|
--------------------------|--------------------------|
--5--5--5--5--5--5--0--0--|--2--2--2--2--2--2--2--2--|
--------------------------|--------------------------|
--------------------------|--------------------------|
--------------------------|--------------------------|


--------------------------|--------------------------|
--------------------------|--------------------------|
--2--2--2--2--2--2--2--2--|--7--7--7--7--7--5--5--5--|
--------------------------|--------------------------|
--------------------------|--------------------------|
--------------------------|--------------------------|


--------------------------|-------------------|-------------------|
--------------------------|-------------------|-------------------|
--5--5--5--5--5--5--0--0--|--2----------------|-------------------|
--------------------------|-------------------|-------------------|
--------------------------|-------------------|-------------------|
--------------------------|-------------------|-------------------|

   
--------------------------|--------------------------|
--------------------------|--------------------------|
--7--7--7--7--7--5--5--5--|--5--5--5--5--5--5--0--0--|
--------------------------|--------------------------|
--------------------------|--------------------------|
--------------------------|--------------------------|

   
--------------------------|--------------------------|
--------------------------|--------------------------|
--2--2--2--2--2--2--2--2--|--2--2--2--2--2--2--2--2--|
--------------------------|--------------------------|
--------------------------|--------------------------|
--------------------------|--------------------------|

                 
--------------------------|--------------------------|-------------------|
--------------------------|--------------------------|-------------------|
--7--7--7--7--7--5--5--5--|--5--5--5--5--5--5--0--0--|--2----------------|
--------------------------|--------------------------|-------------------|
--------------------------|--------------------------|-------------------|
--------------------------|--------------------------|-------------------|





	Breakdown:
                      PM PM    PM PM          PM PM        
-------------------|-----------------------------------|
-------------------|-----------------------------------|
-------------------|-----------------------------------|
-------------------|-----------------------------------|
-------------------|--0--0--1--0--0--1-----------------|
-------------------|--0--0-----0--0-----4--1--0--0--1--|


             PM                                    
------------------------|-------------------------|
------------------------|-------------------------|
------------------------|-------------------------|
------------------------|--/7--------------7------|
----------------5b------|-------5-----------------|
--4----0-----0----------|-----------7--0-------0--|


                                   PM PM    PM PM          PM PM     
--------------------------------|-----------------------------------|
--------------------------------|-----------------------------------|
--------------------------------|-----------------------------------|
--10h--12--12-------------------|-----------------------------------|
------------------5h--6--PH3----|--0--0--1--0--0--1-----------------|
---------------0----------------|--0--0-----0--0-----4--1--0--0--1--|


             PM                                    
------------------------|-------------------------|
------------------------|-------------------------|
------------------------|-------------------------|
------------------------|--/7--------------7------|
----------------5b------|-------5-----------------|
--4----0-----0----------|-----------7--0-------0--|





                                  Verse 1:                                
--------------------------------|----------------------------------|
--------------------------------|--8-8-8-8-8-8-8-8-8-8-8-8-8-8-8-8-|
-------------------------PH3----|----------------------------------|
--10h--12--12-------------------|----------------------------------|
------------------5h--6---------|----------------------------------|
---------------0----------------|----------------------------------|


--15-15-15-15-15-15-15-15-15-15-15-15-15-15-10-10-|
--------------------------------------------------|
--------------------------------------------------|
--------------------------------------------------|
--------------------------------------------------|
--------------------------------------------------|


--10-10-10-10-10-10-10-10-10-10-10-10-10-10-10-10-|
--------------------------------------------------|
--------------------------------------------------|
--------------------------------------------------|
--------------------------------------------------|
--------------------------------------------------|


--10-10-10-10-10-10-10-10-10-10-10-10-10-10-10-10-|
--------------------------------------------------|
--------------------------------------------------|
--------------------------------------------------|
--------------------------------------------------|
--------------------------------------------------|


----------------------------------|
--8-8-8-8-8-8-8-8-8-8-8-8-8-8-8-8-|
----------------------------------|
----------------------------------|
----------------------------------|
----------------------------------|


--15-15-15-15-15-15-15-15-15-15-15-15-15-15-10-10-|
--------------------------------------------------|
--------------------------------------------------|
--------------------------------------------------|
--------------------------------------------------|
--------------------------------------------------|


--10-10-10-10-10-10-10-10-10-10-10-10-10-10-10-10-|
--------------------------------------------------|
--------------------------------------------------|
--------------------------------------------------|
--------------------------------------------------|
--------------------------------------------------|


--10-10-10-10-10-10-10-10-10-10-10-10-10-10-10-10-|
---x--x--x--x--x--x--x--x--x--x--x--x--x--x--x--x-|
---7--7--7--7--7--7--7--7--7--7--7--7--7--7--7--7-|
--------------------------------------------------|
--------------------------------------------------|
--------------------------------------------------|


                                                                     PM        
--10-10-10-10-10-10-10-10-10-10-10-10-10-10-10-10-|--10--------------------|
---x--x--x--x--x--x--x--x--x--x--x--x--x--x--x--x-|---x--------------------|
---7--7--7--7--7--7--7--7--7--7--7--7--7--7--7--7-|---7--------------------|
--------------------------------------------------|------------------------|
--------------------------------------------------|------------8\----0-----|
--------------------------------------------------|------------8\----0-----|





Verse 2:
  PM PM PM                                                        
--------------------------------|----------------------------|
--------------------------------|----------------------------|
--------------------------------|----------------------------|
--------------------------------|----------------------------|
--0--0--0-----------------------|----------------------------|
--0--0--0--0-1-0------2s-5---5s-|--4---4s-7---7s-5---5s-4----|


  PM PM PM                                               
--------------------------------|-----------------------|
--------------------------------|-----------------------|
--------------------------------|-----------------------|
--------------------------------|-----------------------|
--0--0--0-----------------------|-----------------------|
--0--0--0--0-1-0------2s-5---5s-|--4---4s-1----0--------|


  PM PM PM           PM PM PM    PM PM PM                         
------------------------------|-------------------------|
------------------------------|-------------------------|
------------------------------|-------------------------|
------------------------------|-------------------------|
--0--0--0-------5----0--0--0--|--0--0--0-------8--------|
--0--0--0-------7----0--0--0--|--0--0--0-------7--------|


  PM PM PM                                               
--------------------------------|-----------------------|
--------------------------------|-----------------------|
--------------------------------|-----------------------|
--------------------------------|-----------------------|
--0--0--0-----------------------|-----------------------|
--0--0--0--0-1-0------2s-5---5s-|--4---4s-1----0--------|





 Chorus:  
--------------------------|--------------------------|
--------------------------|--------------------------|
--7--7--7--7--7--5--5--5--|--5--5--5--5--5--5--0--0--|
--------------------------|--------------------------|
--------------------------|--------------------------|
--------------------------|--------------------------|


--------------------------|--------------------------|
--------------------------|--------------------------|
--2--2--2--2--2--2--2--2--|--2--2--2--2--2--2--2--2--|
--------------------------|--------------------------|
--------------------------|--------------------------|
--------------------------|--------------------------|

                 
--------------------------|--------------------------|-------------------|
--------------------------|--------------------------|-------------------|
--7--7--7--7--7--5--5--5--|--5--5--5--5--5--5--0--0--|--2----------------|
--------------------------|--------------------------|-------------------|
--------------------------|--------------------------|-------------------|
--------------------------|--------------------------|-------------------|


-------------------|--------------------------|--------------------------|
-------------------|--------------------------|--------------------------|
-------------------|--7--7--7--7--7--5--5--5--|--5--5--5--5--5--5--0--0--|
-------------------|--------------------------|--------------------------|
-------------------|--------------------------|--------------------------|
-------------------|--------------------------|--------------------------|

--------------------------|--------------------------|
--------------------------|--------------------------|
--2--2--2--2--2--2--2--2--|--2--2--2--2--2--2--2--2--|
--------------------------|--------------------------|
--------------------------|--------------------------|
--------------------------|--------------------------|


--------------------------|--------------------------|-------------------|
--------------------------|--------------------------|-------------------|
--7--7--7--7--7--5--5--5--|--5--5--5--5--5--5--0--0--|--2----------------|
--------------------------|--------------------------|-------------------|
--------------------------|--------------------------|-------------------|
--------------------------|--------------------------|-------------------|






Bridge:                 
-------------------|-------------------|-------------------|-------------------|
-------------------|-------------------|-------------------|-------------------|
-------------------|-------------------|-------------------|-------------------|
-------------------|-------------------|-------------------|-------------------|
-------------------|--8----------------|--5----------------|--0----------------|
-------------------|--8----------------|--5----------------|--0----------------|





	Build Up:
-------------------|-------------------|-------------------|-------------------|
-------------------|-------------------|-------------------|-------------------|
-------------------|-------------------|-------------------|-------------------|
-------------------|-------------------|-------------------|-------------------|
-------------------|--8----------------|--7----------------|--0----------------|
-------------------|--8----------------|--5----------------|--0----------------|


-------------------|-------------------|
-------------------|-------------------|
-------------------|-------------------|
-------------------|-------------------|
-------------------|-------------------|
-------------------|-------------------|


------------------------|
------------------------|
------------------------|
------------------------|
------------------------|
--Pick Slide------------|


-------------------|-------------------|-------------------|
-------------------|-------------------|-------------------|
-------------------|-------------------|-------------------|
-------------------|-------------------|-------------------|
--0----------------|-------------------|-------------------|
--0----------------|-------------------|-------------------|

  
------------------------|
------------------------|
------------------------|
------------------------|
------------------------|
--Pick Slide------------|





Breakdown:
       PM PM PM PM PM PM              PM PM PM PM PM PM       
------------------------------|------------------------------|
------------------------------|------------------------------|
------------------------------|------------------------------|
------------------------------|------------------------------|
-------0--0--0--0--0--0-------|-------0--0--0--0--0--0-------|
-------0--0--0--1--1--1-------|-------0--0--0--1--1--1-------|


       PM PM PM PM PM PM              PM PM PM PM PM PM             
------------------------------|---------------------------------|
------------------------------|---------------------------------|
------------------------------|---------------------------------|
------------------------------|---------------------------------|
-------0--0--0--0--0--0-------|-------0--0--0--0--0--0--PH3-----|
-------0--0--0--1--1--1-------|-------0--0--0--1--1--1-------0--|


         PM PM PM PM PM PM              PM PM PM PM PM PM            
--------------------------------|------------------------------|
--------------------------------|------------------------------|
--------------------------------|------------------------------|
--------------------------------|------------------------------|
---------0--0--0--0--0--0-------|-------0--0--0--0--0--0-------|
--PH3----0--0--0--1--1--1-------|-------0--0--0--1--1--1-------|


       PM PM PM PM PM PM              PM PM PM PM PM PM          
------------------------------|---------------------------------|
------------------------------|---------------------------------|
------------------------------|---------------------------------|
------------------------------|---------------------------------|
-------0--0--0--0--0--0-------|-------0--0--0--0--0--0--PH3-----|
-------0--0--0--1--1--1-------|-------0--0--0--1--1--1-------0--|


         PM PM PM PM PM PM        
--------------------------------||
--------------------------------||
--------------------------------||
--------------------------------||
---------0--0--0--0--0--0-------||
--PH3----0--0--0--0--0--0-------||






GUITAR 2





Intro:
   PM PM PM     PM    PM PM PM PM       PM PM PM     PM PM PM PM PM         
C#||------------------------------------|-------------------------------------|
G#||------------------------------------|-------------------------------------|
E ||------------------------------------|-------------------------------------|
B ||------------------------------------|-------------------------------------|
F#||--5---------------------0--0--0--0--|-----0--0--0------0--0--0--0--0------|
B ||-----0--0--0--8---0-----0--0--0--0--|-----0--0--0--1---0--0--0--0--0--1---|


     PM PM PM                                                                      
----------------------------------|-------------------------------------------|
----------------------------------|-------------------------------------------|
----------------------------------|-------------------------------------------|
----------------------------------|-------------------------------------------|
--5-----------------------8-8-8-8-|----------10-10-10-10----------------------|
-----0--0--0--8---5-5-5-5---------|--8-8-8-8-------------10-10-10-10-12-10\---|


     PM PM PM     PM    PM PM PM PM       PM PM PM     PM PM PM PM PM      
------------------------------------|-------------------------------------|
------------------------------------|-------------------------------------|
------------------------------------|-------------------------------------|
------------------------------------|-------------------------------------|
--5---------------------0--0--0--0--|-----0--0--0------0--0--0--0--0------|
-----0--0--0--8---0-----0--0--0--0--|-----0--0--0--1---0--0--0--0--0--1---|


     PM PM PM                                                                  
----------------------------------|-------------------------------------------|
----------------------------------|-------------------------------------------|
----------------------------------|-------------------------------------------|
----------------------------------|-------------------------------------------|
--5-----------------------8-8-8-8-|----------10-10-10-10----------------------|
-----0--0--0--8---5-5-5-5---------|--8-8-8-8-------------10-10-10-10-12-10\---|


     PM PM PM     PM    PM PM PM PM       PM PM PM     PM PM PM PM PM         
------------------------------------|-------------------------------------|
------------------------------------|-------------------------------------|
------------------------------------|-------------------------------------|
------------------------------------|-------------------------------------|
--5---------------------0--0--0--0--|-----0--0--0------0--0--0--0--0------|
-----0--0--0--8---0-----0--0--0--0--|-----0--0--0--1---0--0--0--0--0--1---|


     PM PM PM                                                                      
----------------------------------|-------------------------------------------|
----------------------------------|-------------------------------------------|
----------------------------------|-------------------------------------------|
----------------------------------|-------------------------------------------|
--5-----------------------8-8-8-8-|----------10-10-10-10----------------------|
-----0--0--0--8---5-5-5-5---------|--8-8-8-8-------------10-10-10-10-12-10\---|


     PM PM PM     PM    PM PM PM PM       PM PM PM     PM PM PM PM PM      
------------------------------------|-------------------------------------|
------------------------------------|-------------------------------------|
------------------------------------|-------------------------------------|
------------------------------------|-------------------------------------|
--5---------------------0--0--0--0--|-----0--0--0------0--0--0--0--0------|
-----0--0--0--8---0-----0--0--0--0--|-----0--0--0--1---0--0--0--0--0--1---|


     PM PM PM                                                                      
----------------------------------|-------------------------------------------|
----------------------------------|-------------------------------------------|
----------------------------------|-------------------------------------------|
----------------------------------|-------------------------------------------|
--5-----------------------8-8-8-8-|----------10-10-10-10----------------------|
-----0--0--0--8---5-5-5-5---------|--8-8-8-8-------------10-10-10-10-12-10\---|


                                  PM PM PM PM       
-------------------|-------------------------------|
-------------------|-------------------------------|
-------------------|-------------------------------|
-------------------|-------------------------------|
--0----------------|--0-3---0-2---0--0--0--0-------|
--0----------------|--0-3---0-2---0--0--0--0-------|





 Verse 1: 
----------------------------------|----------------------------------|
----------------------------------|----------------------------------|
----------------------------------|----------------------------------|
----------------------------------|----------------------------------|
----------------------------------|------------------3-3-3-3-5-5-5-5-|
--5-5-5-5-5-5-1-1-1-1-1-1-3-3-3-3-|--0-0-0-0-0-0-0-0-----------------|


----------------------------------|
----------------------------------|
----------------------------------|
----------------------------------|
----------------------------------|
--5-5-5-5-5-5-1-1-1-1-1-1-3-3-3-3-|


  PM PM PM PM PM PM PM PM PM PM PM PM PM PM PM PM  
--------------------------------------------------|
--------------------------------------------------|
--------------------------------------------------|
--------------------------------------------------|
--------------------------------------------------|
--0--0--0--0--0--0--0--0--0--0--0--0--0--0--0--0--|

  
----------------------------------|----------------------------------|
----------------------------------|----------------------------------|
----------------------------------|----------------------------------|
----------------------------------|----------------------------------|
----------------------------------|------------------3-3-3-3-5-5-5-5-|
--5-5-5-5-5-5-1-1-1-1-1-1-3-3-3-3-|--0-0-0-0-0-0-0-0-----------------|


----------------------------------|
----------------------------------|
----------------------------------|
----------------------------------|
----------------------------------|
--5-5-5-5-5-5-1-1-1-1-1-1-3-3-3-3-|


  PM PM PM PM PM PM PM PM PM PM PM PM PM PM PM PM     
--------------------------------------------------|
--------------------------------------------------|
--------------------------------------------------|
--------------------------------------------------|
--------------------------------------------------|
--0--0--0--0--0--0--0--0--0--0--0--0--0--0--0--0--|


  PM PM PM PM PM PM PM PM PM PM PM PM PM PM PM PM         PM PM PM             
--------------------------------------------------|---------------------------|
--------------------------------------------------|---------------------------|
--------------------------------------------------|---------------------------|
--------------------------------------------------|---------------------------|
--------------------------------------------------|-------0--0--0-------------|
--0--0--0--0--0--0--0--0--0--0--0--0--0--0--0--0--|-------0--0--0-------3b----|





Verse 2:
  PM PM PM                                                      
--------------------------------|------------------------------|
--------------------------------|------------------------------|
--------------------------------|------------------------------|
--------------------------------|------------------------------|
--0--0--0-----------------------|------------------------------|
--0--0--0--0-1-0------5s-8---8s-|--7---7s-10---10s-8---8s-7----|


  PM PM PM                                                     
--------------------------------|------------------------|
--------------------------------|------------------------|
--------------------------------|------------------------|
--------------------------------|------------------------|
--0--0--0-----------------------|------------------------|
--0--0--0--0-1-0------5s-8---8s-|--7---7s-5----4---------|


  PM PM PM                                                      
--------------------------------|------------------------------|
--------------------------------|------------------------------|
--------------------------------|------------------------------|
--------------------------------|------------------------------|
--0--0--0-----------------------|------------------------------|
--0--0--0--0-1-0------5s-8---8s-|--7---7s-10---10s-8---8s-7----|





	Pre Chorus:
  PM PM PM                                          PM PM PM PM          
--------------------------------|-------------------------------|-------|
--------------------------------|-------------------------------|-------|
--------------------------------|-------------------------------|-------|
--------------------------------|-------------------------------|-------|
--0--0--0-----------------------|-------------------0--0--0--0--|-------|
--0--0--0--0-1-0------5s-8---8s-|--7---7s-5----4----0--0--0--0--|-------|





	Chorus:
-------|--------------------------|--------------------------|
-------|--------------------------|--------------------------|
-------|--------------------------|--------------------------|
-------|--------------------------|--------------------------|
-------|--8--8--8--8--8--8--8--8--|--5--5--5--5--5--5--1--1--|
-------|--8--8--8--8--8--8--8--8--|--5--5--5--5--5--5--1--1--|


--------------------------|--------------------------|
--------------------------|--------------------------|
--------------------------|--------------------------|
--------------------------|--------------------------|
--0--0--0--0--0--0--0--0--|--0--0--0--0--0--0--0--0--|
--0--0--0--0--0--0--0--0--|--0--0--0--0--0--0--0--0--|

     
--------------------------|--------------------------------|
--------------------------|--------------------------------|
--------------------------|--------------------------------|
--------------------------|--------------------------------|
--8--8--8--8--8--8--8--8--|--10--10--10--10--10--10--------|
--8--8--8--8--8--8--8--8--|--10--10--10--10--10--10--13----|


        PM PM PM PM PM PM PM PM PM    PM PM PM PM PM PM PM PM PM PM PM PM     
-----------------------------------|--------------------------------------|
-----------------------------------|--------------------------------------|
-----------------------------------|--------------------------------------|
-----------------------------------|--------------------------------------|
--------0--0--0--0--0--0--0--0--0--|--0--0--0--0--0--0--0--0--0--0--0--0--|
--12----0--0--0--0--0--0--0--0--0--|--0--0--0--0--0--0--0--0--0--0--0--0--|


--------------------------|--------------------------|
--------------------------|--------------------------|
--------------------------|--------------------------|
--------------------------|--------------------------|
--8--8--8--8--8--8--8--8--|--5--5--5--5--5--5--1--1--|
--8--8--8--8--8--8--8--8--|--5--5--5--5--5--5--1--1--|


--------------------------|--------------------------|
--------------------------|--------------------------|
--------------------------|--------------------------|
--------------------------|--------------------------|
--0--0--0--0--0--0--0--0--|--0--0--0--0--0--0--0--0--|
--0--0--0--0--0--0--0--0--|--0--0--0--0--0--0--0--0--|


--------------------------|--------------------------------|
--------------------------|--------------------------------|
--------------------------|--------------------------------|
--------------------------|--------------------------------|
--8--8--8--8--8--8--8--8--|--10--10--10--10--10--10--------|
--8--8--8--8--8--8--8--8--|--10--10--10--10--10--10--13----|


        PM PM PM PM PM PM PM PM PM    PM PM PM PM PM PM PM PM PM PM PM PM  
-----------------------------------|--------------------------------------|
-----------------------------------|--------------------------------------|
-----------------------------------|--------------------------------------|
-----------------------------------|--------------------------------------|
--------0--0--0--0--0--0--0--0--0--|--0--0--0--0--0--0--0--0--0--0--0--0--|
--12----0--0--0--0--0--0--0--0--0--|--0--0--0--0--0--0--0--0--0--0--0--0--|





Breakdown:
  PM PM    PM PM          PM PM                  PM                 
-----------------------------------|------------------------|
-----------------------------------|------------------------|
-----------------------------------|------------------------|
-----------------------------------|------------------------|
--0--0--1--0--0--1-----------------|----------------5b------|
--0--0-----0--0-----4--1--0--0--1--|--4----0-----0----------|


-------------------------|--------------------------------|
-------------------------|--------------------------------|
-------------------------|--------------------------------|
--/7--------------7------|--10h--12--12-------------------|
-------5-----------------|------------------5h--6--PH3----|
-----------7--0-------0--|---------------0----------------|


  PM PM    PM PM          PM PM                  PM          
-----------------------------------|------------------------|
-----------------------------------|------------------------|
-----------------------------------|------------------------|
-----------------------------------|------------------------|
--0--0--1--0--0--1-----------------|----------------5b------|
--0--0-----0--0-----4--1--0--0--1--|--4----0-----0----------|


-------------------------|--------------------------------|
-------------------------|--------------------------------|
-------------------------|-------------------------PH3----|
--/7--------------7------|--10h--12--12-------------------|
-------5-----------------|------------------5h--6---------|
-----------7--0-------0--|---------------0----------------|


----------------------------------|----------------------------------|
----------------------------------|----------------------------------|
----------------------------------|----------------------------------|
----------------------------------|----------------------------------|
----------------------------------|------------------3-3-3-3-5-5-5-5-|
--5-5-5-5-5-5-1-1-1-1-1-1-3-3-3-3-|--0-0-0-0-0-0-0-0-----------------|


----------------------------------|
----------------------------------|
----------------------------------|
----------------------------------|
----------------------------------|
--5-5-5-5-5-5-1-1-1-1-1-1-3-3-3-3-|


  PM PM PM PM PM PM PM PM PM PM PM PM PM PM PM PM  
--------------------------------------------------|
--------------------------------------------------|
--------------------------------------------------|
--------------------------------------------------|
--------------------------------------------------|
--0--0--0--0--0--0--0--0--0--0--0--0--0--0--0--0--|





Verse 1:
----------------------------------|----------------------------------|
----------------------------------|----------------------------------|
----------------------------------|----------------------------------|
----------------------------------|----------------------------------|
----------------------------------|------------------3-3-3-3-5-5-5-5-|
--5-5-5-5-5-5-1-1-1-1-1-1-3-3-3-3-|--0-0-0-0-0-0-0-0-----------------|


----------------------------------|
----------------------------------|
----------------------------------|
----------------------------------|
----------------------------------|
--5-5-5-5-5-5-1-1-1-1-1-1-3-3-3-3-|


  PM PM PM PM PM PM PM PM PM PM PM PM PM PM PM PM     
--------------------------------------------------|
--------------------------------------------------|
--------------------------------------------------|
--------------------------------------------------|
--------------------------------------------------|
--0--0--0--0--0--0--0--0--0--0--0--0--0--0--0--0--|


  PM PM PM PM PM PM PM PM PM PM PM PM PM PM PM PM                   PM        
--------------------------------------------------|-----------------------|
--------------------------------------------------|-----------------------|
--------------------------------------------------|--7--------------------|
--------------------------------------------------|--x--------------------|
--0--0--0--0--0--0--0--0--0--0--0--0--0--0--0--0--|--5--------8\----0-----|
--0--0--0--0--0--0--0--0--0--0--0--0--0--0--0--0--|-----------8\----0-----|





Verse 2:
  PM PM PM          PM PM PM    PM PM PM                         
-----------------------------|-------------------------|
-----------------------------|-------------------------|
-----------------------------|----------------7--------|
-----------------------------|----------------x--------|
--0--0--0-----------0--0--0--|--0--0--0-------5--------|
--0--0--0-----------0--0--0--|--0--0--0-------4--------|


  PM PM PM          PM PM PM    PM PM PM PM PM PM                      
-----------------------------|--------------------15------------------|
-----------------------------|-----------------------10-11------------|
-----------------------------|-----------------------------10-15--L\--|
-----------------------------|----------------------------------------|
--0--0--0-----------0--0--0--|--0--0--0--0--0--0----------------------|
--0--0--0-----------0--0--0--|--0--0--0--0--0--0----------------------|


  PM PM PM           PM PM PM    PM PM PM                         
------------------------------|-------------------------|
------------------------------|-------------------------|
------------------------------|-------------------------|
------------------------------|-------------------------|
--0--0--0-------5----0--0--0--|--0--0--0-------8--------|
--0--0--0-------7----0--0--0--|--0--0--0-------7--------|


  PM PM PM          PM PM PM    PM PM PM PM PM PM                          
-----------------------------|--------------------15------------------|
-----------------------------|-----------------------10-11------------|
-----------------------------|-----------------------------10-15--L\--|
-----------------------------|----------------------------------------|
--0--0--0-----------0--0--0--|--0--0--0--0--0--0----------------------|
--0--0--0-----------0--0--0--|--0--0--0--0--0--0----------------------|





Chorus:
--------------------------|--------------------------|
--------------------------|--------------------------|
--------------------------|--------------------------|
--------------------------|--------------------------|
--8--8--8--8--8--8--8--8--|--5--5--5--5--5--5--1--1--|
--8--8--8--8--8--8--8--8--|--5--5--5--5--5--5--1--1--|


--------------------------|--------------------------|
--------------------------|--------------------------|
--------------------------|--------------------------|
--------------------------|--------------------------|
--0--0--0--0--0--0--0--0--|--0--0--0--0--0--0--0--0--|
--0--0--0--0--0--0--0--0--|--0--0--0--0--0--0--0--0--|


--------------------------|--------------------------------|
--------------------------|--------------------------------|
--------------------------|--------------------------------|
--------------------------|--------------------------------|
--8--8--8--8--8--8--8--8--|--10--10--10--10--10--10--------|
--8--8--8--8--8--8--8--8--|--10--10--10--10--10--10--13----|


        PM PM PM PM PM PM PM PM PM    PM PM PM PM PM PM PM PM PM PM PM PM  
-----------------------------------|--------------------------------------|
-----------------------------------|--------------------------------------|
-----------------------------------|--------------------------------------|
-----------------------------------|--------------------------------------|
--------0--0--0--0--0--0--0--0--0--|--0--0--0--0--0--0--0--0--0--0--0--0--|
--12----0--0--0--0--0--0--0--0--0--|--0--0--0--0--0--0--0--0--0--0--0--0--|


--------------------------|--------------------------|
--------------------------|--------------------------|
--------------------------|--------------------------|
--------------------------|--------------------------|
--8--8--8--8--8--8--8--8--|--5--5--5--5--5--5--1--1--|
--8--8--8--8--8--8--8--8--|--5--5--5--5--5--5--1--1--|

   
--------------------------|--------------------------|
--------------------------|--------------------------|
--------------------------|--------------------------|
--------------------------|--------------------------|
--0--0--0--0--0--0--0--0--|--0--0--0--0--0--0--0--0--|
--0--0--0--0--0--0--0--0--|--0--0--0--0--0--0--0--0--|


--------------------------|--------------------------------|
--------------------------|--------------------------------|
--------------------------|--------------------------------|
--------------------------|--------------------------------|
--8--8--8--8--8--8--8--8--|--10--10--10--10--10--10--------|
--8--8--8--8--8--8--8--8--|--10--10--10--10--10--10--13----|


        PM PM PM PM PM PM PM PM PM    PM PM PM PM PM PM PM PM PM PM PM PM     
-----------------------------------|--------------------------------------|
-----------------------------------|--------------------------------------|
-----------------------------------|--------------------------------------|
-----------------------------------|--------------------------------------|
--------0--0--0--0--0--0--0--0--0--|--0--0--0--0--0--0--0--0--0--0--0--0--|
--12----0--0--0--0--0--0--0--0--0--|--0--0--0--0--0--0--0--0--0--0--0--0--|





  Bridge:               
-------------------|-------------------|-------------------|-------------------|
-------------------|-------------------|-------------------|-------------------|
-------------------|-------------------|-------------------|-------------------|
-------------------|-------------------|-------------------|-------------------|
--8----------------|--5----------------|--0----------------|-------------------|
--8----------------|--5----------------|--0----------------|-------------------|





Build Up:
                                               PM PM PM PM PM PM      
-------------------|-------------------|-----------------------------|
-------------------|-------------------|-----------------------------|
-------------------|-------------------|-----------------------------|
-------------------|-------------------|-----------------------------|
--8----------------|--7----------------|-------0--0--0--0--0--0------|
--8----------------|--5----------------|-------0--0--0--0--0--0------|


       PM PM PM PM PM PM             PM PM PM PM PM PM            
-----------------------------|-----------------------------|
-----------------------------|-----------------------------|
-----------------------------|-----------------------------|
-----------------------------|-----------------------------|
-------0--0--0--0--0--0------|-------0--0--0--0--0--0------|
-------0--0--0--0--0--0------|-------0--0--0--0--0--0------|


       PM PM PM PM PM PM             PM PM PM PM PM PM      
-----------------------------|-----------------------------|
-----------------------------|-----------------------------|
-----------------------------|-----------------------------|
-----------------------------|-----------------------------|
-------0--0--0--0--0--0------|-------0--0--0--0--0--0------|
-------0--0--0--0--0--0------|-------0--0--0--0--0--0------|


       PM PM PM PM PM PM             PM PM PM PM PM PM      
-----------------------------|-----------------------------|
-----------------------------|-----------------------------|
-----------------------------|-----------------------------|
-----------------------------|-----------------------------|
-------0--0--0--0--0--0------|-------0--0--0--0--0--0------|
-------0--0--0--0--0--0------|-------0--0--0--0--0--0------|





                              Breakdown:
       PM PM PM PM PM PM             PM PM PM PM PM PM       
-----------------------------|------------------------------|
-----------------------------|------------------------------|
-----------------------------|------------------------------|
-----------------------------|------------------------------|
-------0--0--0--0--0--0------|-------0--0--0--0--0--0-------|
-------0--0--0--0--0--0------|-------0--0--0--1--1--1-------|


       PM PM PM PM PM PM              PM PM PM PM PM PM       
------------------------------|------------------------------|
------------------------------|------------------------------|
------------------------------|------------------------------|
------------------------------|------------------------------|
-------0--0--0--0--0--0-------|-------0--0--0--0--0--0-------|
-------0--0--0--1--1--1-------|-------0--0--0--1--1--1-------|


       PM PM PM PM PM PM                   PM PM PM PM PM PM            
---------------------------------|--------------------------------|
---------------------------------|--------------------------------|
---------------------------------|--------------------------------|
---------------------------------|--------------------------------|
-------0--0--0--0--0--0--PH3-----|---------0--0--0--0--0--0-------|
-------0--0--0--1--1--1-------0--|--PH3----0--0--0--1--1--1-------|


       PM PM PM PM PM PM              PM PM PM PM PM PM       
------------------------------|------------------------------|
------------------------------|------------------------------|
------------------------------|------------------------------|
------------------------------|------------------------------|
-------0--0--0--0--0--0-------|-------0--0--0--0--0--0-------|
-------0--0--0--1--1--1-------|-------0--0--0--1--1--1-------|


       PM PM PM PM PM PM                   PM PM PM PM PM PM              
---------------------------------|--------------------------------||
---------------------------------|--------------------------------||
---------------------------------|--------------------------------||
---------------------------------|--------------------------------||
-------0--0--0--0--0--0--PH3-----|---------0--0--0--0--0--0-------||
-------0--0--0--1--1--1-------0--|--PH3----0--0--0--0--0--0-------||






Tablature Legend
----------------
PM – Palm Mute
S – Slide
/ - Slide Im
L - tied note
x - dead note
g - grace note
(n) - ghost note
> - accentuded note
NH - natural harmonic
PH - pitch harmonic
h - hammer on
p - pull off
b - bend
br - bendRelease
pb - preBend

Добавлено: 13.09.2013
Другие материалы по этой песне:
  • Аккорды и текст

Страница создана 13.09.2013
http://primanota.ru/the-devil-wears-prada/constance-chords.htm
Привет, Гость.
Предлагаем пройти революционный курс по гитаре.
Подарок от PrimaNota.Ru, забирай!