PrimaNota.ru - самый крупный в мире бесплатный архив песенных текстов, аккордов, табулатур и нот


Styx - Why me - текст песни, бас-таба, видео

Регистрация Запомнить меня
Войти через:  Facebook Google Twitter Vk Yandex Mail.ru

Styx - Why me - текст песни, бас-таба, видео

Печатать
Просмотров: 128
Уроки эстрадного вокала в Санкт-Петербурге
Styx Why Me

standard tuning

:06
G|-----------------------------------------------------------|
D|-----------------------------------------------------------|
A|-14/--------------7----22-44-55-22--7-------------7--5-4-5-|
E|------7--6--5--4-----------------------5--5----3-----------|

:23
G|------------------------------------------------------|
D|----------4-------------------------------------------|
A|----7-5-7----------------7----22-44-55-22--7--7-------|
E|-3-----------7--6--5--4--------------------------5--5-|

:45
G|-----------------5--5---5----------------------------|
D|----7--7---7----------5-------5--5---5------7--7-----|
A|-5-------5----3--------------------5------7------7-6-|
E|---------------------------3------------3------------|

:55
G|-----------------5--5---5---------------------------|
D|----7--7---7----------5-------5--5---5-----5--5---5-|
A|-5-------5----3--------------------5------------5---|
E|---------------------------3------------3-3---------|

:59 x3
G|-----------------|
D|---7---7---7---7-|
A|-----------------|
E|-5---5---5---5---|

1:09
G|------------------------------------------|
D|------------------------------------------|
A|-5-5-5-5-5-5--5-5-5-5-5-5-----------2-3-5-|
E|---------------------------2--2--5--------|

1:19
G|-------------------------------------|
D|-------------------------------------|
A|-5-5-5-5-5-5--5-5-5-5-5-5--5-3-3-5-5-|
E|-------------------------------------|

1:28
G|----------------------------------|
D|---9---9---9--------9---9---9-----|
A|----------------------------------|
E|-7---7---7---7-5--7---7---7---7-5-|

1:38 x2
G|-----------------------------------------------|
D|--9--9--9--9--9--9--9--9--9--9--9--9--9--9-----|
A|-----------------------------------------------|
E|-7--7--7--7--7--7--7--7--7--7--7--7--7--7--7-5-|

1:56
G|----------------------------------|
D|---9---9---9--------9---9---9-----|
A|--------------------------------5-|
E|-7---7---7---7-5--7---7---7---7---|

2:06
G|-------------------------------------------|
D|----------------------------------7------7-|
A|-7---7--22-44-55-22--7--7--7----5------5---|
E|------------------------------5------5-----|

2:18
G|-----------------5--5---5----------------------------|
D|----7--7---7----------5-------5--5---5------7--7-----|
A|-5-------5----3--------------------5------7------7-6-|
E|---------------------------3------------3------------|

2:28
G|-----------------5--5---5---------------------------|
D|----7--7---7----------5-------5--5---5-----5--5---5-|
A|-5-------5----3--------------------5------------5---|
E|---------------------------3------------3-3---------|

2:37 x6
G|-----------------|
D|---7---7---7---7-|
A|-----------------|
E|-5---5---5---5---|

2:54
G|----------------------------------------------------------------|
D|----------------------------------------------------------------|
A|----------55-55-55-55--55-55-55-55--55-55-55-55-----------2-3-5-|
E|-55555555----------------------------------------2--2--5--------|

3:05 repeat until end
G|------------------------------------------|
D|------------------------------------------|
A|-5-5-5-5-5-5--5-5-5-5-5-5-----------2-3-5-|
E|---------------------------2--2--5--------|

Добавлено: 01.09.2013
Другие материалы по этой песне:
  • Аккорды и текст

Страница создана 17.07.2012
http://primanota.ru/styx/why-me-chords.htm
Привет, Гость.
Предлагаем пройти революционный курс по гитаре.
Подарок от PrimaNota.Ru, забирай!