PrimaNota.ru - самый крупный в мире бесплатный архив песенных текстов, аккордов, табулатур и нот


Styx - Paradise - текст песни, бас-таба, видео

Регистрация Запомнить меня
Войти через:  Facebook Google Twitter Vk Yandex Mail.ru

Styx - Paradise - текст песни, бас-таба, видео

Печатать
Просмотров: 131
Уроки эстрадного вокала в Санкт-Петербурге
Авторы музыки: Dennis DeYoung
Авторы текста: Dennis DeYoung
Styx Paradise

standard tuning

:00
G|----------------------------|
D|----------------------------|
A|-7----6----4----9----7------|
E|--------------------------7-|

:16
G|----------------------------------------------|
D|----------------------------------------------|
A|----------------6----4----6----4----9---------|
E|-5----5----4------------------------------7-7-|

:34
G|-----------------------------------------|
D|-----------------------------------------|
A|----------------6----4----6----4----2--2-|
E|-5----5----4-----------------------------|

:52
G|-----------------------------------------------|
D|-----------------------------------------------|
A|----------------7------------------------------|
E|-5----4----2---------7-7--5--5-5--4--4-0-2---7-|

1:10
G|------------------------------------------------|
D|------------------------------------------------|
A|------------------------------------------------|
E|-0----4--4--5---5-5--5-7-0----0-2-4--4--5---5-5-|

1:27
G|------------------------------------|
D|------------------------------------|
A|-----7------------------------------|
E|-5-5------7--5----4----4--5----7--0-|

1:42
G|-----------------------------------------------------|
D|-----------------------------------------------------|
A|------------------6----6-4----4-6----6-4-------------|
E|-5----5----5-4------------------------------7----7-7-|

2:00
G|----------------------------------------------------------------|
D|----------------------------------------------------------------|
A|--------------------7-------------------------------------------|
E|-5----5-4----4-2---------7-7-5----5-4----4-2----7-7-7-7-7-7-7-7-|

2:18
G|---------------------------------------------------|
D|---------------------------------------------------|
A|---------------------------------------------------|
E|-0----4--4--5----5-5----5-5-0----0-2-4--4--5---5-5-|

2:35
G|-----------------------------------------------------|
D|-----------------------------------------------------|
A|-----7-----------------------------------------------|
E|-5-5------7-5----4----4-5----7--0----0-0-0-0-0-0-0-0-|

2:50
G|-----------------------------------------------------------------------------|
D|-----------------------------------------------------------------------------|
A|-------------------6----6-6----6-6------------------------4--4-4--4-4--4-4---|
E|-2----2-4-6----6-4-----------------6-4----4----4-4----6-7------------------7-|

3:08
G|----------------------------------------------------------------|
D|----------------------------------------------------------------|
A|--------------------7-------------------------------------------|
E|-5----5-4----4-2---------7-7-5----5-4----4-2----7-7-7-7-7-7-7-7-|

3:26
G|----------------------------------------------------|
D|----------------------------------------------------|
A|----------------------------------------------------|
E|-0----4--4--5----5-5----5-5-0----0-2-4--4--5----5-5-|

3:43
G|---------------------------------------------------|
D|---------------------------------------------------|
A|-----7------------------------------7----7--7----7-|
E|-5-5------7-5----4----4-5----7---------------------|

4:05
G|-------------------------|
D|-------------------------|
A|-7----6----4----9------7-|
E|-------------------------|

Добавлено: 19.07.2013
Другие материалы по этой песне:
  • Аккорды и текст

Страница создана 19.07.2013
http://primanota.ru/styx/paradise-chords.htm
Привет, Гость.
Предлагаем пройти революционный курс по гитаре.
Подарок от PrimaNota.Ru, забирай!