PrimaNota.ru - самый крупный в мире бесплатный архив песенных текстов, аккордов, табулатур и нот


Styx - You Better Ask - текст песни, бас-таба, видео

Регистрация Запомнить меня
Войти через:  Facebook Google Twitter Vk Yandex Mail.ru

Styx - You Better Ask - текст песни, бас-таба, видео

Печатать
Просмотров: 37
Авторы музыки: John Curulewski

You Better Ask
by Styx

Intro           Verse
              $
 4/4
|-------------||------------------|-----------------------|
|-------------||o-------------7---|-----------------------|
|-------------||o---------4-7---7-|---4-(4)-5-(5)-6-(6)-7-|
|-----------4-||--5-----5---------|-----------------------|


|-------------7---|-------------------------|
|---------4-7---7-|---4-(4)-5-(5)-6-(6)-7---|
|-5-----5---------|-------------------------|
|-----------------|-------------------------|


|-------------6-9---|------------------------|
|---------6h9-----9-|---6-(6)-7-(7)-8-(8)-9\-|
|-7-----7-----------|------------------------|
|-------------------|------------------------|


|-----------------|----------------||
|---------7-4-----|---------------o||
|-------------7-4-|---0-7--(7)----o||
|-5-----5---------|----------------||


Chorus

|--------------|-----------------------|-------------4---|--------------|
|-7-4----------|-----------------------|---------4-7---7-|-(7)----------|
|-----7--------|---4-(4)-5-(5)-6-(6)-7-|-5-----5---------|--------------|
|-------5------|-----------------------|-----------------|------------5-|


|------4-------|-------------------------|----------------|---------------|
|--------7-4---|-------------------------|----------------|---------------|
|------------7-|-(7)---------------------|----------4-7---|---4-5--(5)----|
|-7------------|-----4-(4)-5-(5)-6-(6)-7-|-5----4-5-----5-|---------------|


|--------------|-----------------------|-------------4---|--------------|
|-7-4----------|-----------------------|---------4-7---7-|-(7)----------|
|-----7--------|---4-(4)-5-(5)-6-(6)-7-|-5-----5---------|------------0-|
|-------5------|-----------------------|-----------------|--------------|


|--------------|-------------------------|
|--------------|-------------------------|
|-2------------|-------------------------|
|------2-0-2-0-|-(0)-1-(1)-2-(2)-3-(3)-4-|


                               D.C.
                               D.C.
|--------------|---------------|-------||
|------4-2-----|---------------|-------||
|-0--------4-0-|---0-5--(5)----|-------||
|--------------|---------------|-------||


Solo Section

||------------------|-----------------------|
||o-------------7---|-----------------------|
||o---------4-7---7-|---4-(4)-5-(5)-6-(6)-7-|
||--5-----5---------|-----------------------|


|-------------7---|------------------------|
|---------4-7---7-|---4-(4)-5-(5)-6-(6)-7--|
|-5-----5---------|------------------------|
|-----------------|------------------------|


|-------------6-9---|------------------------|
|---------6h9-----9-|---6-(6)-7-(7)-8-(8)-9\-|
|-7-----7-----------|------------------------|
|-------------------|------------------------|


                            D.S. al Coda
|-----------------|----------------||-------||
|---------7-4-----|---------------o||-------||
|-------------7-4-|---0-7--(7)----o||-------||
|-5-----5---------|----------------||-------||


Outro
  &
       |-3-|      |-3-|        |-3-|      |-3-|
|-----------------------|-----------------------|
|------4-2--------4-2---|------4-2--------4-2---|
|-0--0-----4-0--0-----4-|-0--0-----4-0--0-----4-|
|-----------------------|-----------------------|


       |-3-|      |-3-|        |-3-|      |-3-|
|------4-2--------4-2---|------4-2--------4-2----|
|-0--0-----4-0--0-----4-|-0--0-----4-0--0-----4--|
|-----------------------|------------------------|
|-----------------------|------------------------|


|----------|----------|--------*|
|----------|----------|--------*|
|-2--------|----------|--------*|
|----------|-0--------|--------*|
Добавлено: 04.10.2015
Другие материалы по этой песне:
  • Аккорды и текст

Страница создана 24.07.2012
http://primanota.ru/styx/you-better-ask-chords.htm
Привет, Гость.
Предлагаем пройти революционный курс по гитаре.
Подарок от PrimaNota.Ru, забирай!