PrimaNota.ru - самый крупный в мире бесплатный архив песенных текстов, аккордов, табулатур и нот


Styx - Witch Wolf - текст песни, бас-таба, видео

Регистрация Запомнить меня
Войти через:  Facebook Google Twitter Vk Yandex Mail.ru

Styx - Witch Wolf - текст песни, бас-таба, видео

Печатать
Просмотров: 49
Авторы музыки: James Young, Ray Brandle

Witch Wolf
by Styx

Intro
 4/4
  Wx3          
|------------|--------------|
|------------|--------------|
|------------|---------12\--|
|------------|--------------|

Pre-Verse

||------------------|--------------|-----------------|--------------||
||o-----------------|--------------|-----------------|-------------o||
||o-3---------------|-----3---5----|-3---------------|-------------o||
||----5---5---5---5-|---5---5------|---5---5---5---5-|---5-3--5-----||


|-----------------|--------------|-----------------|-------------||
|-----------------|--------------|-----------------|-------------||
|-3---------------|-----3---5----|-3-----3-----3---|-------------||
|---5---5---5---5-|---5---5------|---5-----5-----5-|---5-3--5----||


Verse I
                                                                   4x
||------------------|--------------|-----------------|--------------||
||o-----------------|--------------|-----------------|-------------o||
||o-3---------------|-----3---5----|-3---------------|-------------o||
||----5---5---5---5-|---5---5------|---5---5---5---5-|---5-3--5-----||


Chorus
  $
  $$
|----------------|---5-4-2---------|--------------|----------------|
|----------------|---------5-3-2-0-|--------------|----------------|
|-3-5---5-(5)----|-----------------|-3---------0--|-(0)----3-2-0---|
|----------------|-----------------|------3-------|----------------|


                                    To Coda
                                    To Coda
|----------------|----------|------------------||
|-3----(3)-2-0---|-5--------|------------------||
|----------------|----------|--------------17\-||
|----------------|----------|-3s=8--10s=17-----||


Pre-Verse

||------------------|--------------|-----------------|--------------||
||o-----------------|--------------|-----------------|-------------o||
||o-3---------------|-----3---5----|-3---------------|-------------o||
||----5---5---5---5-|---5---5------|---5---5---5---5-|---5-3--5-----||


Verse II

|-----------------|--------------|-----------------|-------------|
|-----------------|--------------|-----------------|-------------|
|-3---------------|-----3---5----|-3---------------|-------------|
|---5---5---5---5-|---5---5------|---5---5---5---5-|---5-3--5----|


                                                  D.S. al Coda
|-----------------|--------------|-----------------|-------------||
|-----------------|--------------|-----------------|-------------||
|-3---------------|-----3---5----|-3---------------|-3-----------||
|---5---5---5---5-|---5---5------|---5---5---5---5-|---5-3--5----||


Guitar Solo
    &
                                                                   8x
||------------------|--------------|-----------------|--------------||
||o-----------------|--------------|-----------------|-------------o||
||o-3---------------|-----3---5----|-3---------------|-3-----------o||
||----5---5---5---5-|---5---5------|---5---5---5---5-|---5-3--5-----||


|----------------|---5-4-2---------|--------------|---------------0-2-|
|----------------|---------5-3-2-0-|-3------------|---------0-2-3-----|
|-3-5---5-(5)----|-----------------|-----------0--|-(0)-2-3-----------|
|----------------|-----------------|------3-------|-------------------|


|----------------|---5-4-2---------|--------------|------------|------||
|----------------|---------5-3-2-0-|--------------|------------|------||
|-3-5---5-(5)----|-----------------|--------------|------------|------||
|----------------|-----------------|-1----3----0--|-(0)--------|------||


Interlude                                Bridge
                                                    D.S.S. al Dbl. Coda
                                     3x                                    4x
||-------12-14-(14)----|-(14)---------||-||-------12-14-(14)----|-(14)------||
||o---12---------------|-------------o||-||o---12---------------|----------o||
||o--------------------|-------------o||-||o--------------------|----------o||
||---------------------|--------------||-||---------------------|-----------||


Outro
    &&
                                                                   4x
||------------------|--------------|-----------------|--------------||
||o-----------------|--------------|-----------------|-------------o||
||o-3---------------|-----3---5----|-3---------------|-3-----------o||
||----5---5---5---5-|---5---5------|---5---5---5---5-|---5-3--5-----||


  |-3-| |-3-|   |-3-|  |-3--|

|-----2-5-----|-----7-10------|-----------|-12h14--------|-(14)-----------*|
|---2-----5---|---7------10---|-----------|--------------|----------------*|
|-0---------3-|-5-----------8S|=12--------|--------------|----------------*|
|-------------|---------------|-----------|--------------|----------------*|
Добавлено: 04.10.2015
Другие материалы по этой песне:
  • Аккорды и текст

Страница создана 22.03.2012
http://primanota.ru/styx/witch-wolf-chords.htm
Привет, Гость.
Предлагаем пройти революционный курс по гитаре.
Подарок от PrimaNota.Ru, забирай!