PrimaNota.ru - самый крупный в мире бесплатный архив песенных текстов, аккордов, табулатур и нот


Steven Wilson - The Old Peace - таба, видео

Регистрация Запомнить меня
Войти через:  Facebook Google Twitter Vk Yandex Mail.ru

Steven Wilson - The Old Peace - таба, видео

Печатать
Просмотров: 90
Авторы музыки: Mariusz Duda

-------------------------------------------------------------------------------
               The Old Peace - Steven Wilson & Mariusz Duda
-------------------------------------------------------------------------------
Tabbed by:      A. Zovaro (hobbaloo)
E-mail:         azov3902@gmail.com

Tuning: Standard

I fell in love with this track the first time I heard it, so naturally I jumped
on the internet to find a tab for it. Alas, none were to be found, so I wrote 
my own. Please email me with any corrections or comments - some notes are quite
soft and so I won't be surprised if I got them wrong. Same goes for the 
lyrics. Enjoy :)

Structure:
        Intro           Pattern 1   x 1, slowing slightly towards the end
        Verse 1         Pattern 1   x 4
        Chorus          Pattern 2.1 x 1
        Interlude       Pattern 1   x 4
        Verse 2         Pattern 1   x 4
        Chorus          Pattern 2.2 x 1
                        Pattern 2.1 x 1
        Interlude       Pattern 1   x 4
        Chorus          Pattern 3   x 2
        Outro           Pattern 4 to the end

Pattern 1 (intro and verses)
e|--------------------------------------2-----2--------2-------2--------------|
B|------4-----4---5-----4-------------------0----6----------------------------|
G|----------4---------4---------4---0-----4----4-----4---4---4---4------------|
D|--------6-----6---------6-------5------------------------5------------------|
A|--7-----------------------7-------------------------------------------------|
E|----------------------------------------------------------------------------|

Pattern 2.1 (1st & 2nd chorus)
e|----------------0------------------------------0----------------------------|
B|------------0--------0-------0-------------0---------0-------0--------------|
G|------4---4--------4---4---4---4-----4---4---------4---4---4---4------------|
D|--------2-----2------------------------2-----2------------------------------|
A|--3----------------------3-------0-----------------------0------------------|
E|----------------------------------------------------------------------------|

e|----------------0------------------------------0------------------------------0--|
B|------------0--------0-------0-------------0--------0-------0-------------0------|
G|------4---4--------4---4---4---4-----4---4--------4---4---4---4-----4---4--------|
D|--------2-----2------------------------2-----2------------------------2-----2----|
A|-------------------------0-------3----------------------3-------0----------------|
E|--0------------------------------------------------------------------------------|

Pattern 2.2 (2nd chorus)
e|----------------0------------------------------0----------------------------|
B|------------0--------0-------0-------------0---------0-------0--------------|
G|------4---4--------4---4---4---4-----4---4---------4---4---4---4------------|
D|--------2-----2------------------------2-----2------------------------------|
A|--3----------------------3-------0-----------------------0------------------|
E|----------------------------------------------------------------------------|

e|----------------0------------------------------0------------------------------0-----------------|
B|------------0--------0-------0-------------0--------0-------0-------------0---------0-------0---|
G|------4---4--------4---4---4---4-----4---4--------4---4---4---4-----4---4---------4---4---4---4-|
D|--------2-----2------------------------2-----2------------------------2-----2-------------------|
A|-------------------------0-------3----------------------3-------0-----------------------0-------|
E|--0---------------------------------------------------------------------------------------------|

Pattern 3 (3rd chorus)
e|---------------------------------------------------------------------------|
B|--0------0------0------0------0--------------------------------------------|
G|---------------------------------------------------------------------------|
D|--2------2------2------2------2--------------------------------------------|
A|--3------0-------------3------0--------------------------------------------|
E|----------------0----------------------------------------------------------|

Pattern 4 (outro)
e|------------------------------|     |--------------------------------------|
B|--------------------------0---|     |--3-----------------------------------|
G|--------0-----------0---------|     |--2--0--------------------------------|
D|------2-----2-----2-----2-----|     |--------------------------------------|
A|--------------3---------------|     |--------------------------------------|
E|--0---------------------------| x 2 |--------------------------------------|

I couldn't find any decent lyrics online, so here they are:

Verse 1 (Wilson): 
        You could be wise
        Spending a lifetime
        Under your tree, watching apples fall from above
        You could be lost, aimless
        In your hometown
        Nothing in that moment matters more
        Than the book in your hand

Chorus (Wilson):
        And I see impressions
        And I see fingerprints, footsteps
        Tears in the rain
        But nothing is more perfect
        Than the smell of harmony

Interlude (Wilson):
        (oooooh, ooooooh) x 2

Verse 2 (Wilson & Duda):
        You've got your solitude
        And I've got my peace
        And nothing in that moment matters more
        If only in just this one fragment
        Together it grows
        This tree may be aimless may be lost
        Right where I need to be

Chorus x 2 (Wilson & Duda):
        And I see impressions
        And I see fingerprints, footsteps
        Tears in the rain
        But nothing is more perfect
        Than the smell of harmony

Interlude:
        (oooooh, ooooooh) x 2

Chorus x 2(Duda, and then Wilson & Duda):
        And I see impressions
        And I see fingerprints, footsteps
        Tears in the rain
        But nothing is more perfect
        Than the smell of harmony
Добавлено: 20.07.2015
Другие материалы по этой песне:
  • Аккорды и текст

Страница создана 20.07.2015
http://primanota.ru/steven-wilson/old-peace-chords.htm
Привет, Гость.
Предлагаем пройти революционный курс по гитаре.
Подарок от PrimaNota.Ru, забирай!