PrimaNota.ru - самый крупный в мире бесплатный архив песенных текстов, аккордов, табулатур и нот


Steven Wilson - The Guitar Lesson - таба, видео

Регистрация Запомнить меня
Войти через:  Facebook Google Twitter Vk Yandex Mail.ru

Steven Wilson - The Guitar Lesson - таба, видео

Печатать
Просмотров: 149
-------------------------------------------------------------------------------
                             The Guitar Lesson - Steven Wilson (Cover)
-------------------------------------------------------------------------------
Tabbed by: David Benítez
E-mail: debml700@gmail.com

Tuning: EADGBe

For those of you who don't know, Steven Wilson has released over the years some (mostly) 
acoustic EPs
consisting of an original and a cover song, he recently compiled all of those releases 
into a CD called
"Cover Version". It's a great album, and I definitely recommend it. This song was 
originally by Momus.

Any comments or suggestions in the comments section, and don't forget to rate! Good luck :)

Intro
e|----------------------------------------------------------------------------|
B|----------------------------------------------------------------------------|
G|----------------------------------------------------------------------------|
D|-12-------12-------10-------10-------12-------12-------10-------10----------|
A|----10-------10-------10-------10-------10-------10-------10-------10-------|
E|-------11-------11-------11-------11-------11-------11-------11-------11----|


Verse 1 (x3)
e|----------------------------------------------------------------------------|
B|----------------------------------------------------------------------------|
G|----------------------------------------------------------------------------|
D|-12-------12-------10-------10-------12-------12-------10-------10----------|
A|----10-------10-------10-------10-------10-------10-------10-------10-------|
E|-------11-------11-------11-------11-------11-------11-------11-------11----|

e|--------------------------------------------------------------------------|
B|--------------------------------------------------------------------------|
G|--------------------------------------------------------------------------|
D|-10------10------8-----8-----8------8------7------7------8------8---------|
A|----8-------8------8-----8-----9------9------8------8------9------9-------|
E|------10------10-----9-----9-----11-----11-----11-----11-----11-----11----|

e|--------------------------------------------------------------------------|
B|--------------------------------------------------------------------------|
G|---------------------------------------------------------0------0---------|
D|-7------7------8------8------7------7------7------7-----------------------|
A|---8------8------9------9------8------8------8------8------8------8-------|
E|-----11-----11-----11-----11-----11-----11-----10-----10-----10-----10----|


Break 1
e|----------------------------------------------------------------------------|
B|----------------------------------------------------------------------------|
G|-12-------12-------10-------10-------12-------12-------10-------10----------|
D|----10-------10-------10-------10-------10-------10-------10-------10-------|
A|-------11-------11-------11-------11-------11-------11-------11-------11----|
E|----------------------------------------------------------------------------|

e|-----------------------------------------------------------|
B|-----------------------------------------------------------|
G|-10------10------8-----8-----8------8------7------7--------|
D|----8-------8------8-----8-----6------6------6------6------|
A|------10------10-----9-----9-----7------7------8------8----|
E|-----------------------------------------------------------|


Verse 2 (x2)
e|----------------------------------------------------------------------------|
B|----------------------------------------------------------------------------|
G|----------------------------------------------------------------------------|
D|-12-------12-------10-------10-------12-------12-------10-------10----------|
A|----10-------10-------10-------10-------10-------10-------10-------10-------|
E|-------11-------11-------11-------11-------11-------11-------11-------11----|

e|--------------------------------------------------------------------------|
B|--------------------------------------------------------------------------|
G|--------------------------------------------------------------------------|
D|-10------10------8-----8-----8------8------7------7------8------8---------|
A|----8-------8------8-----8-----9------9------8------8------9------9-------|
E|------10------10-----9-----9-----11-----11-----11-----11-----11-----11----|

e|--------------------------------------------------------------------------|
B|--------------------------------------------------------------------------|
G|---------------------------------------------------------0------0---------|
D|-7------7------8------8------7------7------7------7-----------------------|
A|---8------8------9------9------8------8------8------8------8------8-------|
E|-----11-----11-----11-----11-----11-----11-----10-----10-----10-----10----|


Break 2
e|----------------------------------------------------------------------------|
B|----------------------------------------------------------------------------|
G|-12-------12-------10-------10-------12-------12-------10-------10----------|
D|----10-------10-------10-------10-------10-------10-------10-------10-------|
A|-------11-------11-------11-------11-------11-------11-------11-------11----|
E|----------------------------------------------------------------------------|

e|-----------------------------------------------------------|
B|-----------------------------------------------------------|
G|-10------10------8-----8-----8------8------7------7--------|
D|----8-------8------8-----8-----6------6------6------6------|
A|------10------10-----9-----9-----7------7------8------8----|
E|-----------------------------------------------------------|


Outro
e|----------------------------------------------------------------------------|
B|----------------------------------------------------------------------------|
G|----------------------------------------------------------------------------|
D|-12-------12-------10-------10-------12-------12-------10-------10----------|
A|----10-------10-------10-------10-------10-------10-------10-------10-------|
E|-------11-------11-------11-------11-------11-------11-------11-------11----|

e|--------------------------------------------------------------------------|
B|--------------------------------------------------------------------------|
G|--------------------------------------------------------------------------|
D|-10------10------8-----8-----8------8------7------7------8------8---------|
A|----8-------8------8-----8-----9------9------8------8------9------9-------|
E|------10------10-----9-----9-----11-----11-----11-----11-----11-----11----|

e|-----------------------------------|
B|-----------------------------------|
G|------------------------------0----|
D|-7------7------7------7------0-----|
A|---8------8------8------8----------|
E|-----11-----11-----10-----10-------|

************************************

| /   slide up
| \   slide down
| h   hammer-on
| p   pull-off
| ~   vibrato
| +   harmonic
| x   Mute note
| b   Bend
| pb  Pre-bend
| br  Bend release
| pbr Pre-bend release
| brb Bend release bend

************************************
Добавлено: 20.07.2015
Другие материалы по этой песне:
  • Аккорды и текст

Страница создана 20.07.2015
http://primanota.ru/steven-wilson/guitar-lesson-chords.htm
Привет, Гость.
Предлагаем пройти революционный курс по гитаре.
Подарок от PrimaNota.Ru, забирай!