PrimaNota.ru - самый крупный в мире бесплатный архив песенных текстов, аккордов, табулатур и нот


Steven Wilson - First Regret - бас-таба, видео

Регистрация Запомнить меня
Войти через:  Facebook Google Twitter Vk Yandex Mail.ru

Steven Wilson - First Regret - бас-таба, видео

Печатать
Просмотров: 90
Steven Wilson
Hand. Cannot. Erase.
First Regret

Bass tab
Drop D Tuning

**This song is the first part on the first track of the album. The full track includes 3 Years Older.**

**This is my first ever tab, and I'm quite proud of it. However, there are a lot
of intricate rhythms that can't quite be fully captured by ASCII...shockingly.
The notes are fairly accurate, but you'll have to listen closely to the rhythm.**


First Regret

Bass comes in at ~2:44
*the rhythm sounds like either pete townshend or rush-xanadu, 
depending on who you ask*
|----------------------------------|x4
|--------------------------4-------|
|----5-3h5-555---5-3h5-5-55-5------|
|--0-----------0-------------------|

2:57
|----------------------------------|
|----------------------------------|
|--1-1-11-111-1-11-111-1-----------|
|----------------------------------|

3:00
|--------------------------------9---9--|
|------------------------------9--------|
|------------1----0-----7---------------|
|--6----2-------------------------------|

3:06
|-----------------------------------------------|
|-----------------------------------------------|
|--3-3-33-333-3-33-333-0-0-0-00-000-0-00-000-0--|
|-----------------------------------------------|

|-----------------------------------------------|
|-----------------------------------------------|
|--2-2-22-222-2-22-222-0-3-3-33-333-3-33-333-0--|
|-----------------------------------------------|

|-----------------------------------------------|
|----------------------7------------------------|
|--7-7-77-777-7-77-777---5-5-55-555-5-55-555-0--|
|-----------------------------------------------|

|-----------------------------------------------|
|-----------------------------------------------|
|--2-2-22-222-2-22-222-0-3-3-33-333-3-33-333-3--|
|-----------------------------------------------|

3:32
*acoustic bit*

3:39
*Then THE RIFF!*
|--------------4-7-4-5-------------|
|----------5-7---------7-5-4-5-7---|
|------5-7-------------------------|
|--5-5-----------------------------|

|------------------------------------------|
|----------5-7---7s9-10-9-10-10s12--12-12--|
|------5-7---------------------------------|
|--5-5-------------------------------------|

|--------12----11-------12s14--14-12-11----------11-12--|
|--14-14----14----12-14-----------------14-12-14--------|
|-------------------------------------------------------|
|-------------------------------------------------------|
|--12-12-12---12-14s15---14-12-----|
|------------------------------15--|
|----------------------------------|
|----------------------------------|

|----------------------------------|
|--15--14--------------------------|
|----------------------------------|
|----------------------------------|

4:08
|----------------------------------|x3
|----------------------------------|
|--3--3--3-3-030-5-55-5-5-5--0-----|
|----------------------------------|

4:26
|--5s7-5-5-4-4----------|
|--------------7-5------|
|-----------------------|
|-----------------------|

*End First Regret*
Добавлено: 19.09.2015
Другие материалы по этой песне:

Страница создана 19.09.2015
http://primanota.ru/steven-wilson/first-regret-chords.htm
Привет, Гость.
Предлагаем пройти революционный курс по гитаре.
Подарок от PrimaNota.Ru, забирай!