PrimaNota.ru - самый крупный в мире бесплатный архив песенных текстов, аккордов, табулатур и нот


Steven Wilson - First Regret 3 Years Older - бас-таба, видео

Регистрация Запомнить меня
Войти через:  Facebook Google Twitter Vk Yandex Mail.ru

Steven Wilson - First Regret 3 Years Older - бас-таба, видео

Печатать
Просмотров: 89
Steven Wilson
Hand. Cannot. Erase.
First Regret/3 Years Older

Bass tab
Drop D Tuning


**This is my first ever tab, and I'm quite proud of it. However, there are a lot
of intricate rhythms that can't quite be fully captured by ASCII...shockingly.
The notes are fairly accurate to my understanding, but you'll have to listen closely to the rhythm.
Otherwise, enjoy this beautiful piece of music!**

h = hammer on
s or \ or / = slide


First Regret

Bass comes in at ~2:44
*the rhythm sounds like either pete townshend or rush-xanadu, 
depending on who you ask*
|----------------------------------|x4
|--------------------------4-------|
|----5-3h5-555---5-3h5-5-55-5------|
|--0-----------0-------------------|

2:57
|----------------------------------|
|----------------------------------|
|--1-1-11-111-1-11-111-1-----------|
|----------------------------------|

3:00
|--------------------------------9---9--|
|------------------------------9--------|
|------------1----0-----7---------------|
|--6----2-------------------------------|

3:06
|-----------------------------------------------|
|-----------------------------------------------|
|--3-3-33-333-3-33-333-0-0-0-00-000-0-00-000-0--|
|-----------------------------------------------|

|-----------------------------------------------|
|-----------------------------------------------|
|--2-2-22-222-2-22-222-0-3-3-33-333-3-33-333-0--|
|-----------------------------------------------|

|-----------------------------------------------|
|----------------------7------------------------|
|--7-7-77-777-7-77-777---5-5-55-555-5-55-555-0--|
|-----------------------------------------------|

|-----------------------------------------------|
|-----------------------------------------------|
|--2-2-22-222-2-22-222-0-3-3-33-333-3-33-333-3--|
|-----------------------------------------------|

3:32
*acoustic bit*

3:39
*Then THE RIFF!*
|--------------4-7-4-5-------------|
|----------5-7---------7-5-4-5-7---|
|------5-7-------------------------|
|--5-5-----------------------------|

|------------------------------------------|
|----------5-7---7s9-10-9-10-10s12--12-12--|
|------5-7---------------------------------|
|--5-5-------------------------------------|

|--------12----11-------12s14--14-12-11----------11-12--|
|--14-14----14----12-14-----------------14-12-14--------|
|-------------------------------------------------------|
|-------------------------------------------------------|
|--12-12-12---12-14s15---14-12-----|
|------------------------------15--|
|----------------------------------|
|----------------------------------|

|----------------------------------|
|--15--14--------------------------|
|----------------------------------|
|----------------------------------|

4:08
|----------------------------------|x3
|----------------------------------|
|--3--3--3-3-030-5-55-5-5-5--0-----|
|----------------------------------|

4:26
|--5s7-5-5-4-4----------|
|--------------7-5------|
|-----------------------|
|-----------------------|

*End First Regret*


3 Years Older

4:36
|--9----7-6--6s4-----------------7------------|
|-----------------------7----7h9---7h9--------|
|-------------------7h9----------------7s5-7--|
|---------------------------------------------|

|-------9-9h11--------------|
|--7h9----------11-11--s14--|
|---------------------------|
|---------------------------|

|--14h16--14----------------------14-----|
|------------14h16-12---14-14s16-----14--|
|----------------------------------------|
|----------------------------------------|

*long pause for verses and stuff*

6:34 Second chorus
|------------------------------------------|
|---------7--------------------------------|
|--8--10-------7-8--10--7----7-8--5--7--8--|
|------------------------------------------|

6:54
*not QUITE sure about this riff - listen closely*
*similar rhythm to opening riff of First Regret, but in A*
|----------------------------------|x6
|------5h7-777---------5h7-77-5-7--|
|--0-0-----------0-0-0-------------|
|----------------------------------| 

|----------------------------------|
|------5h7-777---------------------|
|--0-0-----------0-0-0-5h7-77-5-7--|
|----------------------------------|

|----------------------------------|
|------5h7-777---------5h7-77-5-7--|
|--0-0-----------0-0-0-------------|
|----------------------------------|

7:20
|--9-11-----------------------|
|-----------------------------|
|-----------------------------|
|----------7-9----2-4----7-9--|

|------------------------------------------------|
|-----------------------------------10--9--------|
|--------------------------------10--------9-----|
|--9--11---7--9---9--11--12---10--------------9--|

7:52
|----------------------------------|x2
|----------------------------------|
|-------------------2-2-222-0h2-2--|
|--2h4-4-444-2h4-44----------------|

|----------------------------------|
|----------------------------------|
|--4--4--0--0-0h2-2--2-2-2--0h2-2--|
|----------------------------------|

|----------------------------------|
|----------------------------------|
|--4--4--5--5--3--3-3-3-0h3-3-3----|
|----------------------------------|

|-----------------------------------------|
|-----------------------------------------|
|--0h2-2-2-2--0h2-2--2-2-2-2-2-2-2-2-2-0--|
|-----------------------------------------|

8:24 Chorus
|------------------------------|
|------------------------------|
|--------------------------7\--|
|--3--3--5--5--7--7--7-7-7-----|

|--------------------------------|
|-----------------------------7--|
|--------------------------77----|
|--3--3--5--5--7--7--7-7-7-------|

|--------------------------|
|--------------------------|
|--------------------------|
|--3--3--5--5--2--2--3--3--|

|---------------------------------|x2
|------5h7-777--------5h7-77-5-7--|
|--0-0-----------0-0-0------------|
|---------------------------------|

|----------------------------------|
|----------------------------------|
|----------------------------------|
|--2-------------------------------|

9:07
|-----11----12--11-9-12s14--12-11--------------|
|--9------------------------------12--14-11-9--|
|----------------------------------------------|
|----------------------------------------------|

|--11-12-11----14-16-12-11-----------------14--|
|-----------9--------------14-12-11-12--11-----|
|----------------------------------------------|
|----------------------------------------------|

9:29
*that pete townshend/xanadu rhythm again*
||--------------------------------|x4
||----------------------------5---|
||-----7-5h7-777----7-5h7-7777-7--|
||--2------------2----------------|

|--------------------------|
|--------------------------|
|--3-3-33-333-3-3333333-3--|
|--------------------------|

|--------------------||x2  |----11--|
|--------------------||    |--11----| 
|--1-----3--2---/9---||    |--------|
|-----3--------------||    |--------|

10:14
|----------------------------------|x4
|--------------------------4-------|
|----5-3h5-555---5-3h5-5-55-5------|
|--0-----------0-------------------|

|----------------------------------|
|----------------------------------|
|--1-1-11-111-1-11-111-1-----------|
|----------------------------------|

|-------------------------|
|-------------------------|
|------------1----0-------|
|--6----2--------------2--|

10:36
*similar riff to beginning but different groove*
|-------------------------------|x10
|--------------------------4----|
|-----5--3h5-5----5--3h5-5---5--|
|--0-----------0----------------|

11:09
|-----------------------------------------------|
|-----------------------------------------------|
|--3-3-33-333-3-33-333-0-0-0-00-000-0-00-000-0--|
|-----------------------------------------------|

|-----------------------------------------------|
|-----------------------------------------------|
|--2-2-22-222-2-22-222-0-3-3-33-333-3-33-333-0--|
|-----------------------------------------------|

|-----------------------------------------------|
|----------------------7------------------------|
|--7-7-77-777-7-77-777---5-5-55-555-5-55-555-0--|
|-----------------------------------------------|

|-----------------------------------------------|
|-----------------------------------------------|
|--2-2-22-222-2-22-222-0-3-3-33-333-3-33-333-3--|
|-----------------------------------------------|

11:35 
*last chance to nail this riff!*
|--------------4-7-4-5-------------|
|----------5-7---------7-5-4-5-7---|
|------5-7-------------------------|
|--5-5-----------------------------|

|------------------------------------------|
|----------5-7---7s9-10-9-10-10s12--12-12--|
|------5-7---------------------------------|
|--5-5-------------------------------------|

|--------12----11-------12s14--14-12-11----------11-12--|
|--14-14----14----12-14-----------------14-12-14--------|
|-------------------------------------------------------|
|-------------------------------------------------------|

|--12-12-12---12-14s15---14-12-----|
|------------------------------15--|
|----------------------------------|
|----------------------------------|

|------------------14---14--------------12--|
|--15--14----14-14-----------14---14-14-----|
|-------------------------------------------|
|-------------------------------------------|

|----------------------------------|
|----------------------------------|
|----------------------------------|
|--0-*let ring*--------------------|

*End 3 Years Older*
Добавлено: 19.09.2015
Другие материалы по этой песне:
  • Аккорды и текст

Страница создана 19.09.2015
http://primanota.ru/steven-wilson/first-regret-3-years-older-chords.htm
Привет, Гость.
Предлагаем пройти революционный курс по гитаре.
Подарок от PrimaNota.Ru, забирай!