PrimaNota.ru - самый крупный в мире бесплатный архив песенных текстов, аккордов, табулатур и нот


Steven Wilson - Ancestral - таба, видео

Регистрация Запомнить меня
Войти через:  Facebook Google Twitter Vk Yandex Mail.ru

Steven Wilson - Ancestral - таба, видео

Печатать
Просмотров: 138
-------------------------------------------------------------------------------
                             Ancestral - Steven Wilson
-------------------------------------------------------------------------------
Tabbed by: David Benítez
E-mail: debml700@gmail.com

Tuning: EADGBe

Repeat this lots of times
e|-----------------------|
B|-4--------5-------4----|
G|-----------------------|
D|-6--------5------------|
A|-----------------------|
E|-----------------------|

Eventually this comes in (is this an actual guitar?)
e|----------------------------------------|
B|---4----------------4---------5---4-----|
G|---------4----------------4-------------|
D|-6---6-5----------6---6-5---------------|
A|----------------------------------------|
E|----------------------------------------|

And then this comes in, listen for the rhythm
e|---------------------------------------------|
B|-2---------5---------------------------------|
G|------4---------3----13----15----16----15----|
D|---------------------------------------------|
A|---------------------------------------------|
E|---------------------------------------------|

Repeat this lots of times again
e|-----------------------|
B|-4--------5-------4----|
G|-----------------------|
D|-6--------5------------|
A|-----------------------|
E|-----------------------|

This comes in at the same time
e|--------------|
B|---4----------|
G|---------4----|
D|-6---6-5------|
A|--------------|
E|--------------|

Chorus/solo rhythm
e|---------------------------------|
B|---------------------------------|
G|----------------------------8----|
D|-6--------9--------2--------8----|
A|-6--------9--------2--------6----|
E|-4--------7--------0-------------|

Guthrie's (AMAZING) solo... The fast parts are WAY to hard to tab for me, sorry for not having 
it complete :( If anyone wants to complete AND correct this solo (I'm SURE not everything I have 
is correct), you will def. get credits in here. Most of what I have is correct, so it should give 
you a great head start!
e|------------------------------------------------------------|
B|------------------------------------------------------------|
G|-0h8/13--11h13/15----13h15/16----15h16/18----18b20-18b20----|
D|------------------------------------------------------------|
A|------------------------------------------------------------|
E|------------------------------------------------------------|

e|----------------------------------------------------------------------|
B|-17---------------------------------------14----14/16-----------------|
G|----18b20-r18b20r18b20----16h18-13----/11----12--------18p17p16p15----|
D|-----------------------18---------------------------------------------|
A|----------------------------------------------------------------------|
E|----------------------------------------------------------------------|

e|-------------------------------------------15b16----16----19-18-16-------------|
B|-8--------------------------------------16-------------16----------19-16-------|
G|---9p8\6----------------------------/13----------------------------------18----|
D|---------8--\5-----------6/8-6--/9---------------------------------------------|
A|----------------4-\1-/2--------------------------------------------------------|
E|-------------------------------------------------------------------------------|

e|-------16-18----16------------------------------------------------------|
B|-16-19-------19----16-19----16-------14---------------------------------|
G|-------------------------18----15-16----15-16-13-15-11-13---------------|
D|----------------------------------------------------------13-11-10-9----|
A|------------------------------------------------------------------------|
E|------------------------------------------------------------------------|

e|--------------------------------------------------------------------------------------|
B|----------------------------------------------11-11b14---8----------------------------|
G|---8h9p8----8-------------------------------11-------------6/5p4-3---4p3--------------|
D|-9-------11---9-11b13r11-9---11b13r11p9p8--9-----------------------6-----6p5h6/8h9----|
A|--------------------------------------------------------------------------------------|
E|--------------------------------------------------------------------------------------|

e|---------------------------------------------------------------------------|
B|-------------------12/14-12-12-14-14b16---16b19--r16--14b16r14p12----------|
G|-------------11-13------------------------------------------------13-13----|
D|-11p9h11/13----------------------------------------------------------------|
A|---------------------------------------------------------------------------|
E|---------------------------------------------------------------------------|

e|----------------14-16-18/19-18-16h18p16p14-------16-14-------14-------|
B|-12b14-14-15-16----------------------------16-14-------16-14----16----|
G|----------------------------------------------------------------------|
D|----------------------------------------------------------------------|
A|----------------------------------------------------------------------|
E|----------------------------------------------------------------------|

e|--------------------------------------------------------------------------------|
B|-15-14--------------------------------------------------------------------------|
G|-------16-S-O-M-E-T-H-I-N-G------9-8------9----12----13-14-15----15-16-18-------|
D|----------------------------9-11-------11---11----11----------13----------16----|
A|--------------------------------------------------------------------------------|
E|--------------------------------------------------------------------------------|

e|-------------------21b23r21---19b21-19------------------------------------------------------|
B|-14-16-17-19-20-21---------------------21--21-21-21b23-21b23-19b21-19b21--16b19-19-19r16----|
G|--------------------------------------------------------------------------------------------|
D|--------------------------------------------------------------------------------------------|
A|--------------------------------------------------------------------------------------------|
E|--------------------------------------------------------------------------------------------|

e|----------------------------------------14b16---16-14----14-16-17-18----|
B|-14p12-12b14-12b14-12p11----------14b16---------------16----------------|
G|-------------------------13-----13--------------------------------------|
D|------------------------------14----------------------------------------|
A|------------------------------------------------------------------------|
E|------------------------------------------------------------------------|

e|---------------------------------|
B|-S-O-M-E-T-H-I-N-G---------------|
G|---------------------------------|
D|-------------------5-/6-/8-/9----|
A|---------------------------------|
E|---------------------------------|



Second half of the song
_______________________________________________

                                x8 (second time x4)                  x2
e||-----------------------------||-----------------------------------||
B||---------0-----------------0-||-----------0-----------------------||
G||-------0---0-------5-----5---||---------9---9--------9-----8-0----||
D||-----6-------6---4-----4-----||------10-------10---8-----7--------||
A||---6-----------3-----0-------||---10-------------7-----6----------||
E||-4---------------------------||-8---------------------------------||

                                         x2
e||--------------------------------------||
B||------------0-----------------------0-||
G||----------0---0----------12------12---|| Repeat whole section 2 times
D||-------13-------13----11------11------||
A||----13-------------10-------0---------||
E||-11-----------------------------------||


This part is hard to hear but the final notes, so I'm not sure of the roots on all of em.
                                                          1.
e||--------------8---------------0----------------1-----||-----------1-------|
B||------------8---8----------10---10-----------1---1---||---------1---1-----|
G||----------0-------0------0---------0-------0-------0-||-------0-----------|
D||-------10-------------10-----------------3-----------||-----3-------------|
A||----11-------------12------------------4-------------||---4---------------|
E||-11----------------------------------4---------------||-4-----------------|

  2.
e|---------2------------|
B|-------2---2----------|
G|-----4-------4--------|
D|---4-----------4------|
A|-0---------------0----|
E|----------------------|


Add some overdrive to this
                                x4                                 x2
e||-----------------------------||-----------------------------------||
B||---------0-----------------0-||-----------0-----------------------||
G||-------0---0-------5-----5---||---------9---9--------9-----8-0----||
D||-----6-------6---4-----4-----||------10-------10---8-----7--------||
A||---6-----------3-----0-------||---10-------------7-----6----------||
E||-4---------------------------||-8---------------------------------||

                                         x2
e||--------------------------------------||
B||------------0-----------------------0-||
G||----------0---0----------12------12---|| Repeat section 2 times
D||-------13-------13----11------11------||
A||----13-------------10-------0---------||
E||-11-----------------------------------||


----
Break
----

I honestly have no idea how they get the heavier effect, I'm guessing (and playing) with an octave 
down pedal mixed in with the original signal. Repeat quite a few times.
e|-------------------------------------------------------------|
B|-------------------------------------------------------------|
G|-------------------------------------------------------------|
D|-6---5----------5---5-----5---5-----6---6--------6--5--------|
A|--------7---6-----6----6----6----7----7----3--4-------7-6----|
E|-------------------------------------------------------------|


Repeat second bar as needed, I'm very curious with this bar, sometimes I want to play
the chords with the root on the sixth string, not sure if it's the bass or the guitar,
you decide, but right now I'm playing with the octavizer still on...I need live videos of this :(
Thanks to rgsw97 for pointing out that they are hammers, not power chord slides lol
e|---------||-----------------------------------||
B|---------||-----------------------------------||
G|---------||-----------------------------------||
D|---------||-----------------------------------||
A|-6h7-----||--6h7---6h7---6h7---6h7---6h7------||
E|-----0-0-||------0-----0-----0-----0-----0-0--||


Eventually this enters
e|----------------------------------------------------------------------|
B|-8h9-------------4h5-4----------------------------------8---8-9-11----|
G|-----8--8h9-6-----------6p4--6----------6---6-8-9---8-9---------------|
D|--------------------------------8---8-9-------------------------------|
A|----------------------------------------------------------------------|
E|----------------------------------------------------------------------|
                                                                          } x2
e|-------------------------------------------------------------|
B|-------------------------------------------------------------|
G|-------------------------------------------------------------|
D|-6---5----------5---5-----5---5-----6---6--------6--5--------|
A|--------7---6-----6----6----6----7----7----3--4-------7-6----|
E|-------------------------------------------------------------|

____
Another Break
____


Clean, very quiet
                                     x4                                    x2
e||----------------------------------||------------------------------------||
B||---------0----------------------0-||-----------0------------------------||
G||-------0---0-------5-----5----5---||---------9---9--------9-----8---8-0-||
D||-----6-------6---4-----4----4-----||------10-------10---8-----7---7-----||
A||---6-----------3-----0------------||---10-------------7-----6-----------||
E||-4--------------------------------||-8----------------------------------||

                                                  x2
e||-----------------------------------------------||
B||------------0-----------------------------0----||
G||----------0---0----------12------12----12------||
D||-------13-------13----11------11----11---------||
A||----13-------------10-------0------------------||
E||-11--------------------------------------------||



As rhythm to the arrpegios (Steven plays this)
e|-----------|------------|--------------|
B|-----------|------------|--------------|
G|-----5---5-|------9---8-|------12---12-|
D|-6---4---4-|-10---8---7-|-13---11---11-|
A|-6---3---0-|-10---7---6-|-13---10---0--|
E|-4---------|-8----------|-11-----------|

Add some overdrive to this
                                x4                                 x2
e||-----------------------------||-----------------------------------||
B||---------0-----------------0-||-----------0-----------------------||
G||-------0---0-------5-----5---||---------9---9--------9-----8-0----||
D||-----6-------6---4-----4-----||------10-------10---8-----7--------||
A||---6-----------3-----0-------||---10-------------7-----6----------||
E||-4---------------------------||-8---------------------------------||

                                         x2
e||--------------------------------------||
B||------------0-----------------------0-||
G||----------0---0----------12------12---|| Repeat section 2 times
D||-------13-------13----11------11------||
A||----13-------------10-------0---------||
E||-11-----------------------------------||


Repeat second bar as needed, rhythm changes near the end
e|---------||-----------------------------------||
B|---------||-----------------------------------||
G|---------||-----------------------------------||
D|---------||-----------------------------------||
A|-6h7-----||--6h7---6h7---6h7---6h7---6h7------||
E|-----0-0-||-----0-----0-----0-----0------0-0--||

Eventually this enters, repeat each bar twice
e||----------------------------||------------------------11-12-12-14-15----||
B||-------------------8-8-9-11-||-------11--11-12-14--14-------------------||
G||-----6--6-8-9--8-9----------||-12-13------------------------------------||
D||-8-9------------------------||------------------------------------------||
A||----------------------------||------------------------------------------||
E||----------------------------||------------------------------------------||


e|----------------------------------------------------------------------|
B|-8h9-------------4h5-4----------------------------------8---8-9-11----|
G|-----8--8h9-6-----------6p4--6----------6---6-8-9---8-9---------------|
D|--------------------------------8---8-9-------------------------------|
A|----------------------------------------------------------------------|
E|----------------------------------------------------------------------|
                                                                          } x2
e|-------------------------------------------------------------|
B|-------------------------------------------------------------|
G|-------------------------------------------------------------|
D|-6---5----------5---5-----5---5-----6---6--------6--5--------|
A|--------7---6-----6----6----6----7----7----3--4-------7-6----|
E|-------------------------------------------------------------|


Repeat second bar as needed, rhythm changes near the end
e|---------||-----------------------------------||
B|---------||-----------------------------------||
G|---------||-----------------------------------||
D|---------||-----------------------------------||
A|-6h7-----||--6h7---6h7---6h7---6h7---6h7------||
E|-----0-0-||-----0-----0-----0-----0------0-0--||


Repeat twice the first time, once the second
e||----------------------------||------------------------11-12-12-14-15----||
B||-------------------8-8-9-11-||-------11--11-12-14--14-------------------||
G||-----6--6-8-9--8-9----------||-12-13------------------------------------||
D||-8-9------------------------||------------------------------------------||
A||----------------------------||------------------------------------------||
E||----------------------------||------------------------------------------||

Repeat second bar thrice
e|-15-17-18--18-20-21--||-12-14-15--15-17-18--18-20-21-||
B|---------------------||------------------------------||
G|---------------------||------------------------------||
D|---------------------||------------------------------||
A|---------------------||------------------------------||
E|---------------------||------------------------------||

On the last two reps, rhythm changes to this
e|-------------------------------------------------|
B|-------------------------------------------------|
G|-------------------------------------------------|
D|-------------------------------------------------|
A|----------------------4-6-7--7-9-10--10-12-13----|
E|-0-2-3--3-5-6--6-8-9-----------------------------|


Thanks for diversionmbys for the correct notes on this...
e||-------------------------||----------------|----------|
B||-------------11----------||-------------11-|-----11---|
G||----------14----14-------||----------14----|----14----|
D||-------15----------15----||-------15-------|---15-----|
A||----13----------------13-||----13----------|--13------|
E||-11----------------------||-11-------------|-11-------|

************************************

| /   slide up
| \   slide down
| h   hammer-on
| p   pull-off
| ~   vibrato
| +   harmonic
| x   Mute note
| b   Bend
| pb  Pre-bend
| br  Bend release
| pbr Pre-bend release
| brb Bend release bend

************************************
Добавлено: 19.09.2015
Другие материалы по этой песне:
  • Аккорды и текст

Страница создана 19.09.2015
http://primanota.ru/steven-wilson/ancestral-chords.htm
Привет, Гость.
Предлагаем пройти революционный курс по гитаре.
Подарок от PrimaNota.Ru, забирай!