PrimaNota.ru - самый крупный в мире бесплатный архив песенных текстов, аккордов, табулатур и нот


Steven Wilson - The Watchmaker - таба, видео

Регистрация Запомнить меня
Войти через:  Facebook Google Twitter Vk Yandex Mail.ru

Steven Wilson - The Watchmaker - таба, видео

Печатать
Просмотров: 267
Авторы музыки: Steven Wilson
Авторы текста: Steven Wilson
-------------------------------------------------------------------------------
The Watchmaker - Steven Wilson
-------------------------------------------------------------------------------
Tabbed by: Marc
E-mail: marc.fiorini24@gmail.com

Tuning: Standard
3/4  
e|----------------------------------------------------------------------|
B|----------------------------------------------------------------------|
G|----------------------------------------------------------------------|
D|----------------------------------------------------------------------|
A|--/12------\10--/15-------13--12h13h12-----10--8----10/12---10----7---|
E|----------------------------------------------------------------------|
           *use whammy, or just slide quickly for same effect
e|----------------------------------------------------------------------------|
B|---------------------------------------------------13---13----10---10\8-----|
G|---------------------------------14--14\12---14--------------------------10-|
D|----------------------------------------------------------------------------|
A|--4/5----*\4/5--------10/12/13----------------------------------------------|
E|----------------------------------------------------------------------------|

e|-----------------------------------------------------------------------|
B|---10/13---10---10\8---------------------------------------------------|
G|-----------------------------10h12p9-----------------------------------|
D|-----------------------------------------10p8p7------h8p7--------------|
A|-----------------------------------------------------------------7\5---|
E|-----------------------------------------------------------------------|

e|--------------------------------------------------------------------|
B|-----------------------------8h10h11p10p8h10t15p10p8h10h11p10t15p10-|
G|-------------7h9------7h9-------------------------------------------|
D|--------7h8------7h8------------------------------------------------|
A|---5h7--------------------------------------------------------------|
E|--------------------------------------------------------------------|

e|-----------------------------------------------------------------------------|
B|-8h10h11p10p8h10h11p10t15p10p8h10h11p10p8-11b12p9-12b13p10-13b14p11-14b15p12-|
G|-----------------------------------------------------------------------------|
D|-----------------------------------------------------------------------------|
A|-----------------------------------------------------------------------------|
E|-----------------------------------------------------------------------------|

e|---------------------------------------------17/18-----|
B|-15b16p13-16b17p14-17b18p15-18b19p16--19-20------------|
G|-------------------------------------------------------|
D|-------------------------------------------------------|
A|-------------------------------------------------------|
E|-------------------------------------------------------|

e|------------------------------------17-18------17-18-20b22----|
B|-19---18-17-16-15-16-------16-18-19---------------------------|
G|--------------------------------------------------------------|
D|--------------------------------------------------------------|
A|--------------------------------------------------------------|
E|--------------------------------------------------------------|

e|--20-18-17------------------------------------------------|
B|-----------19-18-16---------------------------------------|
G|--------------------19-17-15---19-------------------------|
D|----------------------------------16p15\13-15p13----------|
A|-------------------------------------------------17-15-13-|
E|----------------------------------------------------------|

e|---------------------------------------------------|
B|---------------------------------------------------|
G|---------------------------------------------------|
D|---------15--15----17b18r17---15---14-----------12-|
A|--(13)------------------------------------15-------|
E|---------------------------------------------------|

e|-10h11h12h13p12p11p10/13h14h15h16p15p14p13\11h12h13h14p13p12p11\8h-|
B|-------------------------------------------------------------------|
G|-------------------------------------------------------------------|
D|-------------------------------------------------------------------|
A|-------------------------------------------------------------------|
E|-------------------------------------------------------------------|

e|-9h10h11p10p9p8\6h7h8h9p8p7p6\5--------------------------------------|
B|---------------------------------------------------------------------|
G|------------------------------------9p5h7----------------------------|
D|-----------------------------------------------7p5h7-----------------|
A|------------------------------------------------------------7p3h5----|
E|---------------------------------------------------------------------|

e|------------------------------------------------------------------------------|
B|------------------------------------------------------------------------------|
G|--------------------------------------------------9---------------------------|
D|---------------------------5---------/12------------------10--------12--------|
A|-(0)-------------5------------------------------------------------------------|
E|---------3--------------------------------------------------------------------|





************************************

| /   slide up
| \   slide down
| h   hammer-on
| p   pull-off
| ~   vibrato
| +   harmonic
| x   Mute note
| b   Bend
| pb  Pre-bend
| br  Bend release
| pbr Pre-bend release
| brb Bend release bend

************************************
Добавлено: 25.09.2013
Другие материалы по этой песне:
  • Аккорды и текст

Страница создана 25.09.2013
http://primanota.ru/steven-wilson/the-watchmaker-chords.htm
Привет, Гость.
Предлагаем пройти революционный курс по гитаре.
Подарок от PrimaNota.Ru, забирай!