PrimaNota.ru - самый крупный в мире бесплатный архив песенных текстов, аккордов, табулатур и нот


Stahlmann - Diener - таба, видео

Регистрация Запомнить меня
Войти через:  Facebook Google Twitter Vk Yandex Mail.ru

Stahlmann - Diener - таба, видео

Печатать
Просмотров: 140
D|----------------------------------------------------------------------------|
A|----------------------------------------------------------------------------|
F|----------------------------------------------------------------------------| 
C|--------3h5-5-33-333--------3h5-5-33-333--------3h5-5-33-333--11-111--33-555| 
G|--3h5-5-------33-333--3h5-5-------33-333--3h5-5-------33-333--11-111--11-333|
C|--------------33-333--------------33-333--------------33-333--11-111--------|

D|-------------------------------------------------------------------------------------|
A|-------------------------------------------------------------------------------------|
F|-------------------------------------------------------------------------------------|
C|--------3h5-5-33-333--------3h5-5-33-333--------3h5-5-33-333--11-111--33-555-5~~~~~~~|
G|--3h5-5-------33-333--3h5-5-------33-333--3h5-5-------33-333--11-111--11-333-5~~~~~~~|
C|--------------33-333--------------33-333--------------33-333--11-111---------5~~~~~~~|

Well, that's what I hear in the song, listen to the music to get the right tempo
Добавлено: 29.05.2015
Другие материалы по этой песне:
  • Аккорды и текст

Страница создана 29.05.2015
http://primanota.ru/stahlmann/diener-chords.htm
Привет, Гость.
Предлагаем пройти революционный курс по гитаре.
Подарок от PrimaNota.Ru, забирай!