PrimaNota.ru - самый крупный в мире бесплатный архив песенных текстов, аккордов, табулатур и нот


Stahlmann - Plasma - бас-таба, видео

Регистрация Запомнить меня
Войти через:  Facebook Google Twitter Vk Yandex Mail.ru

Stahlmann - Plasma - бас-таба, видео

Печатать
Просмотров: 216
Stahlmann - Plasma Bass Tab
Tuning: Drop A (A-E-A-D)

Tab checked and corrected by Ablaz(bassplayer of Stahlmann), so it should be right.



Main Riff(Intro, Chorus)
D|----------------|----------------|----------------|----------------|
A|----------------|----------------|----------------|----------------|
E|----------------|----------------|----------------|----------------|
A|0-2-2-2-0-2-2-2-|0-2-2-3---3---3-|0-2-2-2-0-2-2-2-|0-2-2-5---5---5-|

D|----------------|----------------|----------------|----------------|
A|----------------|----------------|----------------|----------------|
E|----------------|----------------|----------------|----------------|
A|0-2-2-2-0-2-2-2-|0-2-2-3---3---3-|0-2-2-2-0-2-2-2-|0-2-2-5-5-5-5-5-|

Vers Riff 

D|----------------|----------------|----------------|----------------|
A|0-2-------------|0-2-------------|0-2-------------|0-2-------------|
E|----------------|----------------|----------------|----------------|
A|----2-2-0-2-2-2-|----2-3-3-3-3-3-|----2-2-0-2-2-2-|----2-5-5-5-5-5-|

Bridge Riff 

D|----------------|----------------|----------------|----------------|
A|----------------|----------------|----------------|----------------|
E|----------------|----------------|----------------|----------------|
A|2---2---2---2---|2---2---2---5-3-|2---2---2---2---|5---3---2---2---|
  T   T   T        T   T   T        T   T   T   T    T   T   T   T
 
*T = Triplet
Добавлено: 24.10.2015
Другие материалы по этой песне:
  • Аккорды и текст

Страница создана 24.10.2015
http://primanota.ru/stahlmann/plasma-chords.htm
Привет, Гость.
Предлагаем пройти революционный курс по гитаре.
Подарок от PrimaNota.Ru, забирай!