PrimaNota.ru - самый крупный в мире бесплатный архив песенных текстов, аккордов, табулатур и нот


Stahlmann - Wenn Der Regen Kommt - таба, видео

Регистрация Запомнить меня
Войти через:  Facebook Google Twitter Vk Yandex Mail.ru

Stahlmann - Wenn Der Regen Kommt - таба, видео

Печатать
Просмотров: 69
Intro (clean sound)
D|--------------------------------------------------------|
A|--------------------------------------------------------|
F|--------------------------6---------------------------6-|
C|---3-----9-9h11p9---4----6----3-----9-9h11p9----4----6--|
G|--3-----9----------4----4----3-----9-----------4----4---|
C|-3---0-9----------4---0-----3---0-9-----------4---0-----|

With Distortion
D|-------------------------------------------------------------------------------|
A|-------------------------------------------------------------------------------|
F|----------------------------6666-----------------------------------------------|
C|-11111111-99999999-44444444-6666-44-4-4-11111111-99999999-33333333-4444-44-4-4-|
G|-11111111-99999999-44444444-4444-44-4-4-11111111-99999999-33333333-4444-44-4-4-|
C|-11111111-99999999-44444444------44-4-4-11111111-99999999-33333333-4444-44-4-4-|

D|--------------------------------------------------------------------------------|
A|--------------------------------------------------------------------------------|
F|----------------------------6666------------------------------------------------|
C|-11111111-99999999-44444444-6666-44-4-4-11111111-99999999-33333333-44-4-444-4-4-|
G|-11111111-99999999-44444444-4444-44-4-4-11111111-99999999-33333333-44-4-444-4-4-|
C|-11111111-99999999-44444444------44-4-4-11111111-99999999-33333333-44-4-444-4-4-|

Again clean sound
D|------------------------------------------------------------|
A|------------------------------------------------------------|
F|--------------------------6-6/8---------------------------6-|
C|---3-----9-9h11p9---4----6--------3-----9-9h11p9----4----6--| 
G|--3-----9----------4----4--------3-----9-----------4----4---|
C|-3---0-9----------4---0---------3---0-9-----------4---0-----|

D|--------------------------------------------------------|
A|--------------------------------------------------------|
F|--------------------------6---------------------------6-|
C|---3-----9-9h11p9---4----6----3-----9-9h11p9----4----6--| 
G|--3-----9----------4----4----3-----9-----------4----4---|
C|-3---0-9----------4---0-----3---0-9-----------4---0-----|

Distortion
D|-----------------------------------------------------------------------------|
A|-----------------------------------------------------------------------------|
F|----------------------------66666666-----------------------------------------|
C|-11111111-99999999-44444444-66666666-11111111-99999999-33333333-44-4-444-4-4-|
G|-11111111-99999999-44444444-44444444-11111111-99999999-33333333-44-4-444-4-4-|
C|-11111111-99999999-44444444----------11111111-99999999-33333333-44-4-444-4-4-|

Clean sound
D|----------------------------------------------------------------|
A|----------------------------------------------------------------|
F|--------------------------6-6/8---------------------------6-6/8-|
C|---3-----9-9h11p9---4----6--------3-----9-9h11p9----4----6------| 
G|--3-----9----------4----4--------3-----9-----------4----4-------|
C|-3---0-9----------4---0---------3---0-9-----------4---0---------|

D|-----------------------------------------------------------------------------------|
A|-----------------------------------------------------------------------------------|
F|--------------------------6---------------------------6--------------------------6-|
C|---3-----9-9h11p9---4----6----3-----9-9h11p9----4----6----3-----9-9h11p9---4----4--| 
G|--3-----9----------4----4----3-----9-----------4----4----3-----9----------4----4---|
C|-3---0-9----------4---0-----3---0-9-----------4---0-----3---0-9----------4---0-----|

Distortion
D|-----------------------------------------------------------------------------|
A|-----------------------------------------------------------------------------|
F|----------------------------66666666-----------------------------------------|
C|-11111111-99999999-44444444-66666666-11111111-99999999-33333333-44-4-444-4-4-|
G|-11111111-99999999-44444444-44444444-11111111-99999999-33333333-44-4-444-4-4-|
C|-11111111-99999999-44444444----------11111111-99999999-33333333-44-4-444-4-4-|

D|-------------------------------------|
A|-------------------------------------|
F|-------------------------------------|
C|-11-1-666-11-1-666-11-1-666-11-1-666-|
G|-11-1-444-11-1-444-11-1-444-11-1-444-| 
C|-11-1-----11-1-----11-1-----11-1-----|


D|-------------------------------------|
A|-------------------------------------|
F|-------------------------------------|
C|-11-1-666-11-1-666-11-1-666-11-1-666-|
G|-11-1-444-11-1-444-11-1-444-11-1-444-| 
C|-11-1-----11-1-----11-1-----11-1-----|
   ** *     ** *     ** *     ** *

D|-----------------------------------------------------------------------------|
A|-----------------------------------------------------------------------------|
F|----------------------------66666666-----------------------------------------|
C|-11111111-99999999-44444444-66666666-11111111-99999999-33333333-44-4-444-4-4-|
G|-11111111-99999999-44444444-44444444-11111111-99999999-33333333-44-4-444-4-4-| x2
C|-11111111-99999999-44444444----------11111111-99999999-33333333-44-4-444-4-4-|

D|-------------------------------------|
A|-------------------------------------|
F|-------------------------------------|
C|-11-1-444-11-1-444-11-1-444-11-1-444-|
G|-11-1-222-11-1-222-11-1-222-11-1-222-| 
C|-11-1-----11-1-----11-1-----11-1-----|

D|---|
A|---|
F|---|
C|-1-|
G|-1-|
C|-1-|

* - Palm mute
Добавлено: 24.10.2015
Другие материалы по этой песне:
  • Аккорды и текст

Страница создана 24.10.2015
http://primanota.ru/stahlmann/wenn-der-regen-kommt-chords.htm
Привет, Гость.
Предлагаем пройти революционный курс по гитаре.
Подарок от PrimaNota.Ru, забирай!