PrimaNota.ru - самый крупный в мире бесплатный архив песенных текстов, аккордов, табулатур и нот


Stahlmann - Am Grunde - таба, видео

Регистрация Запомнить меня
Войти через:  Facebook Google Twitter Vk Yandex Mail.ru

Stahlmann - Am Grunde - таба, видео

Печатать
Просмотров: 67
Intro
D|-------------------------------------------------------------------------------------------------------------|
A|-------------------------------------------------------------------------------------------------------------|
F|-------------------------------------------------------------------------------------------------------------|
C|-5/7----10p8----5/7----7\5----5/7----10p8----5/7----7----5/7----10p8----5/7----7\5----5/7----10p8----5/7-00-7|
G|-5/7----10p8----5/7----7\5----5/7----10p8----5/7----7----5/7----10p8----5/7----7\5----5/7----10p8----5/7-00-7|
C|-5/7-00-10p8-00-5/7-00-7\5-00-5/7-00-10p8-00-5/7-00-7-00-5/7-00-10p8-00-5/7-00-7\5-00-5/7-00-10p8-00-5/7-00-7|
       **      **     **     **     **      **     **   **     **      **     **     **     **      **     **


D|--------------------------------------|
A|--------------------------------------|
F|--------------------------------------|
C|-65-------65------3-65-------65-------|
G|-65-0-0-0-65-0-0-03-65-0-0-0-65-0-0-0-|
C|-65-0-0-0-65-0-0-03-65-0-0-0-65-0-0-0-|
      * * *    * * *     * * *    * * *
   
D|------------------------------------------------------|
A|------------------------------------------------------|
F|------------------------------------------------------|
C|-5/7----10p8----5/7----7\5----5/7----10p8----5/7----7-|
G|-5/7----10p8----5/7----7\5----5/7----10p8----5/7----7-|
C|-5/7-00-10p8-00-5/7-00-7\5-00-5/7-00-10p8-00-5/7-00-7-|
       **      **     **     **     **      **     **

D|--------------------------------------|
A|--------------------------------------|
F|--------------------------------------|
C|-65-------65------3-65-------65-------|
G|-65-0-0-0-65-0-0-03-65-0-0-0-65-0-0-0-|
C|-65-0-0-0-65-0-0-03-65-0-0-0-65-0-0-0-|
      * * *    * * *     * * *    * * *

Chorus
D|-------------------------------------|
A|-------------------------------------|
F|----------------------------55555555-|
C|-55555555-00000000-33333333-55555555-| x2
G|-55555555-00000000-33333333-33333333-|
C|-55555555-00000000-33333333----------|



D|--------------------------------------|
A|--------------------------------------|
F|--------------------------------------|
C|-65-------65------3-65-------65-------|
G|-65-0-0-0-65-0-0-03-65-0-0-0-65-0-0-0-| x2
C|-65-0-0-0-65-0-0-03-65-0-0-0-65-0-0-0-|
      * * *    * * *     * * *    * * *


Chorus
D|-------------------------------------|
A|-------------------------------------|
F|----------------------------55555555-|
C|-55555555-00000000-33333333-55555555-| x2
G|-55555555-00000000-33333333-33333333-|
C|-55555555-00000000-33333333----------|



This part you play twice
D|-------------------------------------------------------------------------------------------------------------|
A|-------------------------------------------------------------------------------------------------------------|
F|-------------------------------------------------------------------------------------------------------------|
C|-5/7----10p8----5/7----7\5----5/7----10p8----5/7----7----5/7----10p8----5/7----7\5----5/7----10p8----5/7-00-7|
G|-5/7----10p8----5/7----7\5----5/7----10p8----5/7----7----5/7----10p8----5/7----7\5----5/7----10p8----5/7-00-7|
C|-5/7-00-10p8-00-5/7-00-7\5-00-5/7-00-10p8-00-5/7-00-7-00-5/7-00-10p8-00-5/7-00-7\5-00-5/7-00-10p8-00-5/7-00-7|
       **      **     **     **     **      **     **   **     **      **     **     **     **      **     **


Chorus
D|-------------------------------------|
A|-------------------------------------|
F|----------------------------55555555-|
C|-55555555-00000000-33333333-55555555-| x4
G|-55555555-00000000-33333333-33333333-|
C|-55555555-00000000-33333333----------|

D|---|
A|---|
F|---|
C|-5-|
G|-5-|
C|-5-|

* - Palm mute
p - pull off
h - hammer on
/ - slire up
\ - slide down
Добавлено: 24.10.2015
Другие материалы по этой песне:
  • Аккорды и текст

Страница создана 24.10.2015
http://primanota.ru/stahlmann/am-grunde-chords.htm
Привет, Гость.
Предлагаем пройти революционный курс по гитаре.
Подарок от PrimaNota.Ru, забирай!